  0
SECTION
  2
HEADER
  9
$ACADVER
  1
AC1009
  9
$INSBASE
 10
0
 20
0
 30
0
  9
$EXTMIN
 10
0
 20
0
  9
$EXTMAX
 10
42000
 20
29700
  9
$LIMMIN
 10
0
 20
0
  9
$LIMMAX
 10
42000
 20
29700
  9
$LTSCALE
 40
100
  0
ENDSEC
  0
SECTION
  2
TABLES
  0
TABLE
  2
LTYPE
 70
     9
  0
LTYPE
  2
CONTINUOUS
 70
    64
  3
実線
 72
    65
 73
     0
 40
0.0
  0
LTYPE
  2
DASHED1
 70
    64
  3
--  --  --  --  --  --  --  --  
 72
    65
 73
     2
 40
2.5
 49
1.25
 49
-1.25
  0
LTYPE
  2
DASHED2
 70
    64
  3
----    ----    ----    ----    
 72
    65
 73
     2
 40
5.0
 49
2.5
 49
-2.5
  0
LTYPE
  2
DASHED3
 70
    64
  3
------  ------  ------  ------  
 72
    65
 73
     2
 40
5.0
 49
3.75
 49
-1.25
  0
LTYPE
  2
CENTER1
 70
    64
  3
----- - ----- - ----- - ----- - 
 72
    65
 73
     4
 40
10.0
 49
6.25
 49
-1.25
 49
1.25
 49
-1.25
  0
LTYPE
  2
CENTER2
 70
    64
  3
----------  --  ----------  --  
 72
    65
 73
     4
 40
20.0
 49
12.5
 49
-2.5
 49
2.5
 49
-2.5
  0
LTYPE
  2
PHANTOM1
 70
    64
  3
--- - - --- - - --- - - --- - - 
 72
    65
 73
     6
 40
10.0
 49
3.25
 49
-1.25
 49
1.25
 49
-1.25
 49
1.25
 49
-1.25
  0
LTYPE
  2
PHANTOM2
 70
    64
  3
--------  -  -  --------  -  -  
 72
    65
 73
     6
 40
20.0
 49
10.0
 49
-2.5
 49
1.25
 49
-2.5
 49
1.25
 49
-2.5
  0
LTYPE
  2
DOT
 70
    64
  3
-   -   -   -   -   -   -   -   
 72
    65
 73
     2
 40
2.5
 49
0.625
 49
-1.875
  0
LTYPE
  2
DUMMY
 70
    64
  3
ダミー
 72
    65
 73
     0
 40
0.0
  0
LTYPE
  2
RAND1
 70
    64
  3
ランダム線1
 72
    65
 73
     4
 40
10.0
 49
1.0
 49
-2.0
 49
3.0
 49
-4.0
  0
LTYPE
  2
RAND2
 70
    64
  3
ランダム線2
 72
    65
 73
     4
 40
14.0
 49
2.0
 49
-3.0
 49
4.0
 49
-5.0
  0
LTYPE
  2
RAND3
 70
    64
  3
ランダム線3
 72
    65
 73
     4
 40
18.0
 49
3.0
 49
-4.0
 49
5.0
 49
-6.0
  0
LTYPE
  2
RAND4
 70
    64
  3
ランダム線4
 72
    65
 73
     4
 40
22.0
 49
4.0
 49
-5.0
 49
6.0
 49
-7.0
  0
LTYPE
  2
RAND5
 70
    64
  3
ランダム線5
 72
    65
 73
     4
 40
26.0
 49
5.0
 49
-6.0
 49
7.0
 49
-8.0
  0
LTYPE
  2
LONG1
 70
    64
  3
----------  --  ----------  --  
 72
    65
 73
     4
 40
40.0
 49
32.5
 49
-2.5
 49
2.5
 49
-2.5
  0
LTYPE
  2
LONG2
 70
    64
  3
--------  -  -  --------  -  -  
 72
    65
 73
     6
 40
40.0
 49
30.0
 49
-2.5
 49
1.25
 49
-2.5
 49
1.25
 49
-2.5
  0
LTYPE
  2
LONG3
 70
    64
  3
+++++++++++++++..+++++++++++++++
 72
    65
 73
     2
 40
40.0
 49
37.5
 49
-2.5
  0
LTYPE
  2
LONG4
 70
    64
  3
+++++++++++++++..+++++++++++++++
 72
    65
 73
     2
 40
80.0
 49
75.0
 49
-5.0
  0
LTYPE
  2
LONG5
 70
    64
  3
----------  --  ----------  --  
 72
    65
 73
     4
 40
60.0
 49
37.5
 49
-7.5
 49
7.5
 49
-7.5
  0
LTYPE
  2
dashed
 70
   64
  3
-------   -------------   ------
 72
   65
 73
    2
 40
7.5
 49
6
 49
-1.5
  0
LTYPE
  2
dashed_spaced
 70
   64
  3
----        --------        ----
 72
   65
 73
    2
 40
12
 49
6
 49
-6
  0
LTYPE
  2
long_dashed_dotted
 70
   64
  3
------------- --- --------------
 72
   65
 73
    4
 40
15.25
 49
12
 49
-1.5
 49
0.25
 49
-1.5
  0
LTYPE
  2
long_dashed_double-dotted
 70
   64
  3
----------- --- --- ------------
 72
   65
 73
    6
 40
17
 49
12
 49
-1.5
 49
0.25
 49
-1.5
 49
0.25
 49
-1.5
  0
LTYPE
  2
long_dashed_triplicate-dotted
 70
   64
  3
--------- --- --- --- ----------
 72
   65
 73
    8
 40
18.75
 49
12
 49
-1.5
 49
0.25
 49
-1.5
 49
0.25
 49
-1.5
 49
0.25
 49
-1.5
  0
LTYPE
  2
dotted
 70
   64
  3
   -       -       -       -    
 72
   65
 73
    2
 40
1.75
 49
0.25
 49
-1.5
  0
LTYPE
  2
chain
 70
   64
  3
-------------- -- --------------
 72
   65
 73
    4
 40
18.5
 49
12
 49
-1.5
 49
3.5
 49
-1.5
  0
LTYPE
  2
chain_double_dash
 70
   64
  3
------------ -- -- -------------
 72
   65
 73
    6
 40
23.5
 49
12
 49
-1.5
 49
3.5
 49
-1.5
 49
3.5
 49
-1.5
  0
LTYPE
  2
dashed_dotted
 70
   64
  3
-----------     -     ----------
 72
   65
 73
    4
 40
9.25
 49
6
 49
-1.5
 49
0.25
 49
-1.5
  0
LTYPE
  2
double-dashed_dotted
 70
   64
  3
------   -----------   -   -----
 72
   65
 73
    6
 40
16.75
 49
6
 49
-1.5
 49
6
 49
-1.5
 49
0.25
 49
-1.5
  0
LTYPE
  2
dashed_double-dotted
 70
   64
  3
---------    -    -    ---------
 72
   65
 73
    6
 40
11
 49
6
 49
-1.5
 49
0.25
 49
-1.5
 49
0.25
 49
-1.5
  0
LTYPE
  2
double-dashed_double-dotted
 70
   64
  3
-----   ---------   -   -   ----
 72
   65
 73
    8
 40
18.5
 49
6
 49
-1.5
 49
6
 49
-1.5
 49
0.25
 49
-1.5
 49
0.25
 49
-1.5
  0
LTYPE
  2
dashed_triplicate-dotted
 70
   64
  3
-------    -    -    -    ------
 72
   65
 73
    8
 40
12.75
 49
6
 49
-1.5
 49
0.25
 49
-1.5
 49
0.25
 49
-1.5
 49
0.25
 49
-1.5
  0
LTYPE
  2
double-dashed_triplicate-dotted
 70
   64
  3
-----  ---------  -  -  -  -----
 72
   65
 73
   10
 40
20.25
 49
6
 49
-1.5
 49
6
 49
-1.5
 49
0.25
 49
-1.5
 49
0.25
 49
-1.5
 49
0.25
 49
-1.5
  0
LTYPE
  2
undefined
 70
   64
  3
--------------------------------
 72
   65
 73
    0
 40
0
  0
LTYPE
  2
_
 70
   64
  3
                                
 72
   65
 73
    0
 40
0
  0
LTYPE
  2
__18
 70
   64
  3
                                
 72
   65
 73
    0
 40
0
  0
LTYPE
  2
__19
 70
   64
  3
                                
 72
   65
 73
    0
 40
0
  0
LTYPE
  2
__20
 70
   64
  3
                                
 72
   65
 73
    0
 40
0
  0
LTYPE
  2
__21
 70
   64
  3
                                
 72
   65
 73
    0
 40
0
  0
LTYPE
  2
__22
 70
   64
  3
                                
 72
   65
 73
    0
 40
0
  0
LTYPE
  2
__23
 70
   64
  3
                                
 72
   65
 73
    0
 40
0
  0
LTYPE
  2
__24
 70
   64
  3
                                
 72
   65
 73
    0
 40
0
  0
LTYPE
  2
__25
 70
   64
  3
                                
 72
   65
 73
    0
 40
0
  0
LTYPE
  2
__26
 70
   64
  3
                                
 72
   65
 73
    0
 40
0
  0
LTYPE
  2
__27
 70
   64
  3
                                
 72
   65
 73
    0
 40
0
  0
LTYPE
  2
__28
 70
   64
  3
                                
 72
   65
 73
    0
 40
0
  0
LTYPE
  2
__29
 70
   64
  3
                                
 72
   65
 73
    0
 40
0
  0
LTYPE
  2
__30
 70
   64
  3
                                
 72
   65
 73
    0
 40
0
  0
LTYPE
  2
__31
 70
   64
  3
                                
 72
   65
 73
    0
 40
0
  0
LTYPE
  2
__32
 70
   64
  3
                                
 72
   65
 73
    0
 40
0
  0
ENDTAB
  0
TABLE
  2
STYLE
  5
3
100
AcDbSymbolTable
 70
     1
  0
STYLE
  5
10
100
AcDbSymbolTableRecord
100
AcDbTextStyleTableRecord
  2
STANDARD
 70
     0
 40
0.0
 41
1.0
 50
0.0
 71
     0
 42
0.2
  3
txt
  4
bigfont.shx
  0
STYLE
  5
26
100
AcDbSymbolTableRecord
100
AcDbTextStyleTableRecord
  2
TATEGAKI
 70
    68
 40
0.0
 41
1.0
 50
0.0
 71
     0
 42
1.0
  3
txt
  4
bigfont.shx
  0
ENDTAB
  0
TABLE
  2
LAYER
 70
   10
  0
LAYER
  2
_0-0_
 70
   64
 62
    7
  6
CONTINUOUS
  0
LAYER
  2
_0-1_
 70
   64
 62
    7
  6
CONTINUOUS
  0
LAYER
  2
_0-2_
 70
   64
 62
    7
  6
CONTINUOUS
  0
LAYER
  2
_0-4_
 70
   64
 62
    7
  6
CONTINUOUS
  0
LAYER
  2
_0-5_
 70
   64
 62
    7
  6
CONTINUOUS
  0
LAYER
  2
_0-6_
 70
   64
 62
    7
  6
CONTINUOUS
  0
LAYER
  2
_0-7_
 70
   64
 62
    7
  6
CONTINUOUS
  0
LAYER
  2
_0-8_
 70
   64
 62
    7
  6
CONTINUOUS
  0
LAYER
  2
_0-a_
 70
   64
 62
    7
  6
CONTINUOUS
  0
LAYER
  2
ADD_LINE
 70
   64
 62
    7
  6
CONTINUOUS
  0
ENDTAB
  0
ENDSEC
  0
SECTION
  2
BLOCKS
  0
ENDSEC
  0
SECTION
  2
ENTITIES
  0
LINE
  8
_0-8_
  6
CONTINUOUS
 62
    7
 10
32693.298337707783
 20
25402.685914260717
 11
33893.298337707783
 21
25402.685914260717
  0
LINE
  8
_0-7_
  6
CONTINUOUS
 62
    7
 10
32681.072123932153
 20
25717.133481180633
 11
34861.060469516494
 21
25717.133481180633
  0
TEXT
  8
_0-0_
 62
    7
 10
13225.735449735449
 20
26894.592592592594
 40
800
 41
1
 50
0
  1
高知市文化プラザ　大ホール舞台平面図
  0
LINE
  8
_0-7_
  6
CONTINUOUS
 62
    7
 10
36841.062748319433
 20
24347.142464424483
 11
36841.062748319433
 21
22647.159325680961
  0
LINE
  8
_0-7_
  6
CONTINUOUS
 62
    7
 10
32701.064289516034
 20
22397.175503532216
 11
36591.069016794936
 21
22397.175503532216
  0
LINE
  8
_0-7_
  6
CONTINUOUS
 62
    7
 10
32701.064289516034
 20
24597.175833451987
 11
36591.069016794936
 21
24597.175833451987
  0
LINE
  8
_0-7_
  6
CONTINUOUS
 62
    7
 10
32451.060648615792
 20
24347.142464424483
 11
32451.060648615792
 21
22647.159325680961
  0
LINE
  8
_0-4_
  6
dotted
 62
    4
 10
20421.053709696188
 20
24339.170818671584
 11
20421.053709696188
 21
24945.170818671584
  0
LINE
  8
_0-a_
  6
CONTINUOUS
 62
    7
 10
29525.069937374308
 20
12202.782134744491
 11
30373.472609004664
 21
12545.559064151768
  0
LINE
  8
_0-5_
  6
CONTINUOUS
 62
    7
 10
4676.4550404265664
 20
10687.546906597075
 11
3676.4550404265664
 21
10687.546906597075
  0
LINE
  8
_0-5_
  6
CONTINUOUS
 62
    7
 10
4131.0606356546541
 20
5437.5674585040169
 11
4131.0606356546541
 21
5167.1889548322978
  0
LINE
  8
_0-5_
  6
CONTINUOUS
 62
    7
 10
4131.0606356546541
 20
5167.1889548322978
 11
4131.0606356546541
 21
3043.1667585915051
  0
LINE
  8
_0-5_
  6
CONTINUOUS
 62
    7
 10
4131.0606356546541
 20
3043.1667585915051
 11
2406.0761418835509
 21
3043.1667585915051
  0
LINE
  8
_0-5_
  6
CONTINUOUS
 62
    7
 10
2406.0761418835509
 20
3043.1667585915051
 11
2406.0761418835509
 21
3837.1941718315156
  0
SOLID
  8
_0-5_
  6
CONTINUOUS
 62
    7
 10
2428.9560255389915
 20
4953.9481456219018
 11
2533.1449321391519
 21
4953.9481456219018
 12
2428.9560255389915
 22
4953.9481456219018
 13
2481.0504788390744
 23
4658.5058197182379
  0
LINE
  8
_0-5_
  6
CONTINUOUS
 62
    7
 10
2428.9560255389915
 20
4953.9481456219018
 11
2533.1449321391519
 21
4953.9481456219018
  0
LINE
  8
_0-5_
  6
CONTINUOUS
 62
    7
 10
2481.0504788390744
 20
5717.1791279364842
 11
2481.0504788390744
 21
4658.5058197182379
  0
LINE
  8
_0-5_
  6
CONTINUOUS
 62
    7
 10
2481.0504788390744
 20
4658.5058197182379
 11
2428.9560255389915
 21
4953.9481456219018
  0
LINE
  8
_0-5_
  6
CONTINUOUS
 62
    7
 10
2533.1449321391519
 20
4953.9481456219018
 11
2481.0504788390744
 21
4658.5058197182379
  0
LINE
  8
_0-7_
  6
CONTINUOUS
 62
    7
 10
5461.0673212430183
 20
9007.1909720560106
 11
5981.0618139395273
 21
9007.1909720560106
  0
TEXT
  8
_0-5_
 62
    7
 10
34002.474748512766
 20
5655.3294746488691
 40
300
 41
1
 50
0
  1
水道
  0
TEXT
  8
_0-5_
 62
    7
 10
17679.231820545424
 20
6962.4977452817001
 40
500
 41
1
 50
0
  1
オーケストラピット迫り
  0
LINE
  8
_0-8_
  6
CONTINUOUS
 62
    7
 10
41281.075576306815
 20
24697.131706683605
 11
41281.075576306815
 21
582.18413800375401
  0
LINE
  8
_0-7_
  6
CONTINUOUS
 62
    7
 10
34861.040650764982
 20
8387.1415123703063
 11
34406.051663015387
 21
8387.1415123703063
  0
SOLID
  8
_0-2_
  6
CONTINUOUS
 62
    7
 10
34406.071481766892
 20
8387.1415123703063
 11
34606.071481766892
 21
8387.1415123703063
 12
34406.071481766892
 22
8187.1415123703063
 13
34606.071481766892
 23
8187.1415123703063
  0
LINE
  8
_0-7_
  6
CONTINUOUS
 62
    7
 10
2661.0840175396051
 20
9844.9295983078081
 11
2661.0840175396051
 21
9752.6435819098569
  0
LINE
  8
_0-7_
  6
CONTINUOUS
 62
    7
 10
737.54536178354896
 20
11767.180035215833
 11
2661.0840175396051
 21
11767.180035215833
  0
LINE
  8
_0-7_
  6
CONTINUOUS
 62
    7
 10
2881.0622499049259
 20
25097.173205876722
 11
2251.0538675863526
 21
25097.173205876722
  0
SOLID
  8
_0-2_
  6
CONTINUOUS
 62
    7
 10
15736.074267232324
 20
28992.172258535698
 11
15736.074267232324
 21
28022.163284718124
 12
16706.068376986258
 22
28992.172258535698
 13
16706.068376986255
 23
28022.163284718124
  0
SOLID
  8
_0-2_
  6
CONTINUOUS
 62
    7
 10
24136.078679909158
 20
28992.172258535698
 11
24136.078679909158
 21
28022.163284718124
 12
25106.067834975219
 22
28992.172258535698
 13
25106.067834975219
 23
28022.163284718124
  0
LINE
  8
_0-7_
  6
CONTINUOUS
 62
    7
 10
12975.178496190983
 20
6194.2561142419835
 11
12819.967943754476
 21
5573.3544482414426
  0
LINE
  8
_0-7_
  6
CONTINUOUS
 62
    7
 10
14003.538829136574
 20
6866.9441779334702
 11
13848.323322012198
 21
6246.0425119329274
  0
LINE
  8
_0-7_
  6
CONTINUOUS
 62
    7
 10
16711.057747678456
 20
1797.1688108741659
 11
16711.057747678456
 21
1157.1816871712201
  0
LINE
  8
_0-7_
  6
CONTINUOUS
 62
    7
 10
10261.069842772643
 20
9007.1909720560088
 11
11421.06136854784
 21
9007.1909720560088
  0
LINE
  8
_0-7_
  6
CONTINUOUS
 62
    7
 10
31716.06738487041
 20
26404.636061624511
 11
40221.071543037716
 21
26404.626152248751
  0
LINE
  8
_0-7_
  6
CONTINUOUS
 62
    7
 10
40346.063454112081
 20
26622.156768802789
 11
40346.063454112081
 21
26279.629286486499
  0
LINE
  8
_0-7_
  6
CONTINUOUS
 62
    7
 10
3279.5777052318953
 20
1157.1915965469656
 11
5976.0575791837081
 21
1157.1915965469656
  0
LINE
  8
_0-7_
  6
CONTINUOUS
 62
    7
 10
2881.0622499049259
 20
25717.173118683662
 11
2881.0622499049259
 21
25097.173205876722
  0
LINE
  8
_0-7_
  6
CONTINUOUS
 62
    7
 10
2596.1082407199628
 20
23157.175076993094
 11
4361.0770656588611
 21
23157.175076993094
  0
LINE
  8
_0-7_
  6
CONTINUOUS
 62
    7
 10
2696.0839327031067
 20
23257.170587727759
 11
2696.0839327031067
 21
23157.175076993094
  0
LINE
  8
_0-7_
  6
CONTINUOUS
 62
    7
 10
2596.1082407199628
 20
23257.170587727759
 11
4361.0770656588611
 21
23257.170587727759
  0
LINE
  8
_0-7_
  6
CONTINUOUS
 62
    7
 10
4261.0815549242315
 20
22223.860521592989
 11
4261.0815549242315
 21
23257.170587727759
  0
LINE
  8
_0-7_
  6
CONTINUOUS
 62
    7
 10
3516.0847763550636
 20
23257.170587727759
 11
3516.0847763550636
 21
23157.175076993094
  0
LINE
  8
_0-7_
  6
CONTINUOUS
 62
    7
 10
3416.0892656204168
 20
23157.175076993094
 11
3416.0892656204168
 21
23257.170587727759
  0
LINE
  8
_0-7_
  6
CONTINUOUS
 62
    7
 10
4201.070375357398
 20
22323.856032327636
 11
4241.0844346524581
 21
22323.856032327636
  0
LINE
  8
_0-7_
  6
CONTINUOUS
 62
    7
 10
4261.0815549242315
 20
22323.856032327636
 11
4361.0770656588611
 21
22323.856032327636
  0
LINE
  8
_0-7_
  6
CONTINUOUS
 62
    7
 10
4361.0770656588611
 20
22223.860521592989
 11
4261.0815549242315
 21
22223.860521592989
  0
LINE
  8
_0-7_
  6
CONTINUOUS
 62
    7
 10
4361.0770656588611
 20
23257.170587727759
 11
4361.0770656588611
 21
22223.860521592989
  0
LINE
  8
_0-7_
  6
CONTINUOUS
 62
    7
 10
4261.0815549242315
 20
16723.859696793562
 11
4261.0815549242315
 21
11787.177155487621
  0
LINE
  8
_0-7_
  6
CONTINUOUS
 62
    7
 10
4201.070375357398
 20
16623.844367307407
 11
4241.0844346524581
 21
16623.844367307407
  0
LINE
  8
_0-7_
  6
CONTINUOUS
 62
    7
 10
2251.0538675863526
 20
12197.167667937846
 11
2251.0538675863526
 21
16097.180864728376
  0
LINE
  8
_0-7_
  6
CONTINUOUS
 62
    7
 10
2251.0538675863526
 20
12197.167667937846
 11
2596.0686032169519
 21
12197.167667937846
  0
LINE
  8
_0-7_
  6
CONTINUOUS
 62
    7
 10
2931.0847787116299
 20
16097.180864728376
 11
2251.0538675863526
 21
16097.180864728376
  0
LINE
  8
_0-7_
  6
CONTINUOUS
 62
    7
 10
2931.0748693358846
 20
16917.181708380347
 11
2931.0847787116299
 21
16097.180864728376
  0
LINE
  8
_0-7_
  6
CONTINUOUS
 62
    7
 10
2251.0538675863526
 20
16917.181708380347
 11
2931.0748693358846
 21
16917.181708380347
  0
LINE
  8
_0-7_
  6
CONTINUOUS
 62
    7
 10
2404.0744479812192
 20
12197.167667937846
 11
2404.0744479812192
 21
16097.180864728376
  0
LINE
  8
_0-7_
  6
CONTINUOUS
 62
    7
 10
4261.0815549242315
 20
13923.856574338662
 11
4361.0770656588611
 21
13923.856574338662
  0
LINE
  8
_0-7_
  6
CONTINUOUS
 62
    7
 10
4361.0770656588611
 20
13823.85115422827
 11
4261.0815549242315
 21
13823.85115422827
  0
LINE
  8
_0-7_
  6
CONTINUOUS
 62
    7
 10
4361.0770656588611
 20
16623.844367307407
 11
4261.0815549242315
 21
16623.844367307407
  0
LINE
  8
_0-7_
  6
CONTINUOUS
 62
    7
 10
4361.0770656588611
 20
14757.16570962839
 11
4261.0815549242315
 21
14757.16570962839
  0
LINE
  8
_0-7_
  6
CONTINUOUS
 62
    7
 10
2596.0686032169519
 20
12057.197735411145
 11
2596.0686032169519
 21
16097.180864728376
  0
LINE
  8
_0-7_
  6
CONTINUOUS
 62
    7
 10
4361.0770656588611
 20
12890.536598828146
 11
4261.0815549242315
 21
12890.536598828146
  0
LINE
  8
_0-7_
  6
CONTINUOUS
 62
    7
 10
4261.0815549242315
 20
12990.532109562775
 11
4361.0770656588611
 21
12990.532109562775
  0
LINE
  8
_0-7_
  6
CONTINUOUS
 62
    7
 10
4261.0815549242315
 20
16723.859696793562
 11
4361.0770656588611
 21
16723.859696793562
  0
LINE
  8
_0-7_
  6
CONTINUOUS
 62
    7
 10
4261.0815549242315
 20
15790.515413266171
 11
4361.0770656588611
 21
15790.515413266171
  0
LINE
  8
_0-7_
  6
CONTINUOUS
 62
    7
 10
2881.0622499049259
 20
11719.922222244513
 11
2881.0622499049259
 21
12057.197735411145
  0
LINE
  8
_0-7_
  6
CONTINUOUS
 62
    7
 10
2596.0686032169519
 20
12057.197735411145
 11
2881.0622499049259
 21
12057.197735411145
  0
LINE
  8
_0-7_
  6
CONTINUOUS
 62
    7
 10
2881.0622499049259
 20
9007.1909720560106
 11
2881.0622499049259
 21
8387.1811498733168
  0
LINE
  8
_0-7_
  6
CONTINUOUS
 62
    7
 10
2881.0622499049259
 20
9532.6653495445352
 11
2881.0622499049259
 21
9799.9113042569097
  0
LINE
  8
_0-7_
  6
CONTINUOUS
 62
    7
 10
4361.0770656588611
 20
15690.519902531525
 11
4261.0815549242315
 21
15690.519902531525
  0
LINE
  8
_0-7_
  6
CONTINUOUS
 62
    7
 10
2596.0686032169519
 20
9532.6653495445352
 11
2881.0622499049259
 21
9532.6653495445352
  0
LINE
  8
_0-7_
  6
CONTINUOUS
 62
    7
 10
2881.0622499049259
 20
11887.182575598013
 11
4261.0815549242315
 21
11887.182575598013
  0
LINE
  8
_0-7_
  6
CONTINUOUS
 62
    7
 10
2746.0965521340485
 20
9844.9295983078081
 11
1751.0763139131199
 21
9844.9295983078081
  0
LINE
  8
_0-7_
  6
CONTINUOUS
 62
    7
 10
2666.1080710469432
 20
10759.921717938592
 11
2746.0965521340485
 21
10759.921717938592
  0
LINE
  8
_0-7_
  6
CONTINUOUS
 62
    7
 10
2746.0866427583027
 20
11674.92374694515
 11
1751.0763139131199
 21
11674.92374694515
  0
LINE
  8
_0-7_
  6
CONTINUOUS
 62
    7
 10
2666.0882522954407
 20
9844.9295983078081
 11
2666.0882522954407
 21
11674.913837569391
  0
LINE
  8
_0-7_
  6
CONTINUOUS
 62
    7
 10
2746.0965521340485
 20
9844.9295983078081
 11
2746.0965521340485
 21
11674.913837569391
  0
LINE
  8
_0-7_
  6
CONTINUOUS
 62
    7
 10
846.05302629097991
 20
7147.1813242594835
 11
3221.0727507796891
 21
7147.1813242594835
  0
LINE
  8
_0-7_
  6
CONTINUOUS
 62
    7
 10
2981.077579391092
 20
11887.182575598013
 11
2981.077579391092
 21
11787.177155487621
  0
LINE
  8
_0-7_
  6
CONTINUOUS
 62
    7
 10
5461.0673212430183
 20
11787.177155487621
 11
2881.0622499049259
 21
11787.177155487621
  0
LINE
  8
_0-7_
  6
CONTINUOUS
 62
    7
 10
4361.0770656588611
 20
16723.859696793562
 11
4361.0770656588611
 21
12057.197735411145
  0
LINE
  8
_0-7_
  6
DASHED1
 62
    7
 10
4221.0873143806738
 20
16623.844367307407
 11
4221.0873143806738
 21
11986.355608145067
  0
LINE
  8
_0-7_
  6
CONTINUOUS
 62
    7
 10
2661.0542894123568
 20
11674.913837569391
 11
2661.0542894123568
 21
11767.180035215833
  0
LINE
  8
_0-7_
  6
CONTINUOUS
 62
    7
 10
3371.0610621937858
 20
3347.1933663308477
 11
3371.0610621937858
 21
5267.1745561911993
  0
LINE
  8
_0-7_
  6
CONTINUOUS
 62
    7
 10
3121.0475119177599
 20
3815.0447238092879
 11
3121.0475119177599
 21
5817.1845480468728
  0
LINE
  8
_0-7_
  6
CONTINUOUS
 62
    7
 10
3121.0475119177599
 20
5817.1845480468728
 11
3155.0862176331179
 21
5817.1845480468728
  0
LINE
  8
_0-7_
  6
CONTINUOUS
 62
    7
 10
3336.0611470302901
 20
5267.19437494269
 11
3471.0763916799237
 21
5267.19437494269
  0
LINE
  8
_0-7_
  6
CONTINUOUS
 62
    7
 10
3471.0763916799237
 20
3247.1879462204556
 11
3471.0763916799237
 21
5267.1745561911993
  0
LINE
  8
_0-7_
  6
CONTINUOUS
 62
    7
 10
3076.0391272426545
 20
3247.1879462204556
 11
3076.0391272426545
 21
3833.3968877058823
  0
LINE
  8
_0-7_
  6
CONTINUOUS
 62
    7
 10
3155.0862176331179
 20
3801.1914165050397
 11
3155.0862176331179
 21
5817.1845480468728
  0
LINE
  8
_0-7_
  6
CONTINUOUS
 62
    7
 10
3176.0445473530467
 20
3347.1933663308477
 11
3371.0610621937858
 21
3347.1933663308477
  0
LINE
  8
_0-7_
  6
CONTINUOUS
 62
    7
 10
3076.0391272426545
 20
3247.1879462204556
 11
3471.0763916799237
 21
3247.1879462204556
  0
LINE
  8
_0-7_
  6
CONTINUOUS
 62
    7
 10
3176.0445473530467
 20
3347.1933663308477
 11
3176.0445473530467
 21
3792.639625229262
  0
LINE
  8
_0-7_
  6
CONTINUOUS
 62
    7
 10
3155.0862176331179
 20
4877.2208015157702
 11
3221.0727507796891
 21
4877.2208015157702
  0
LINE
  8
_0-7_
  6
CONTINUOUS
 62
    7
 10
3155.0862176331179
 20
5157.2201228236654
 11
3221.0727507796891
 21
5157.2201228236654
  0
LINE
  8
_0-7_
  6
CONTINUOUS
 62
    7
 10
1841.053445760383
 20
5157.2201228236654
 11
3121.0475119177599
 21
5157.2201228236654
  0
LINE
  8
_0-7_
  6
CONTINUOUS
 62
    7
 10
1841.053445760383
 20
4877.2208015157702
 11
3121.0475119177599
 21
4877.2208015157702
  0
LINE
  8
_0-7_
  6
CONTINUOUS
 62
    7
 10
1841.053445760383
 20
4597.2016614563326
 11
3121.0475119177599
 21
4597.2016614563326
  0
LINE
  8
_0-7_
  6
CONTINUOUS
 62
    7
 10
3155.0862176331179
 20
4037.2129282162659
 11
3221.0727507796891
 21
4037.2129282162659
  0
LINE
  8
_0-7_
  6
CONTINUOUS
 62
    7
 10
3155.0862176331179
 20
4597.2016614563326
 11
3221.0727507796891
 21
4597.2016614563326
  0
LINE
  8
_0-7_
  6
CONTINUOUS
 62
    7
 10
1841.053445760383
 20
5717.1791279364842
 11
3121.0475119177599
 21
5717.1791279364842
  0
LINE
  8
_0-7_
  6
CONTINUOUS
 62
    7
 10
3471.0763916799237
 20
4907.1867537961652
 11
4791.0448796293849
 21
4907.1867537961652
  0
LINE
  8
_0-7_
  6
CONTINUOUS
 62
    7
 10
3471.0763916799237
 20
4647.1845527600262
 11
4791.0448796293849
 21
4647.1845527600262
  0
LINE
  8
_0-7_
  6
CONTINUOUS
 62
    7
 10
3471.0763916799237
 20
4387.182351723899
 11
4791.0448796293849
 21
4387.182351723899
  0
LINE
  8
_0-7_
  6
CONTINUOUS
 62
    7
 10
1841.053445760383
 20
4339.4389793406307
 11
1841.053445760383
 21
5912.1956427772229
  0
LINE
  8
_0-7_
  6
CONTINUOUS
 62
    7
 10
2575.8237485513118
 20
4037.2129282162659
 11
3121.0475119177599
 21
4037.2129282162659
  0
LINE
  8
_0-7_
  6
CONTINUOUS
 62
    7
 10
1760.0542083463437
 20
4127.1900600635117
 11
2355.0527661256692
 21
4127.1801506877554
  0
LINE
  8
_0-7_
  6
CONTINUOUS
 62
    7
 10
3155.0862176331179
 20
5437.1996253800743
 11
3221.0727507796891
 21
5437.1996253800743
  0
LINE
  8
_0-7_
  6
CONTINUOUS
 62
    7
 10
3155.0862176331179
 20
5717.1791279364842
 11
3221.0727507796891
 21
5717.1791279364842
  0
LINE
  8
_0-7_
  6
CONTINUOUS
 62
    7
 10
3471.0763916799237
 20
4127.1801506877554
 11
4791.0448796293849
 21
4127.1801506877554
  0
LINE
  8
_0-7_
  6
CONTINUOUS
 62
    7
 10
3471.0763916799237
 20
3867.1977684031303
 11
4791.0448796293849
 21
3867.1977684031303
  0
LINE
  8
_0-7_
  6
CONTINUOUS
 62
    7
 10
1896.6549531166435
 20
4317.2221588999236
 11
3121.0475119177599
 21
4317.2221588999236
  0
LINE
  8
_0-7_
  6
CONTINUOUS
 62
    7
 10
1466.2313078614431
 20
4489.3678345001862
 11
3336.0611470302901
 21
3727.4359327672614
  0
LINE
  8
_0-7_
  6
CONTINUOUS
 62
    7
 10
846.05302629097991
 20
5912.1956427772229
 11
1841.053445760383
 21
5912.1956427772229
  0
LINE
  8
_0-7_
  6
CONTINUOUS
 62
    7
 10
1841.053445760383
 20
5437.1996253800743
 11
3121.0475119177599
 21
5437.1996253800743
  0
LINE
  8
_0-7_
  6
CONTINUOUS
 62
    7
 10
3155.0862176331179
 20
4317.2221588999236
 11
3221.0727507796891
 21
4317.2221588999236
  0
LINE
  8
_0-7_
  6
CONTINUOUS
 62
    7
 10
3471.0763916799237
 20
5167.1889548322978
 11
4791.0448796293849
 21
5167.1889548322978
  0
LINE
  8
_0-7_
  6
CONTINUOUS
 62
    7
 10
1760.0542083463437
 20
3867.1977684031303
 11
2993.127380308073
 21
3867.177949651611
  0
LINE
  8
_0-7_
  6
CONTINUOUS
 62
    7
 10
1741.0876631530015
 20
1902.188375116134
 11
1741.0876631530015
 21
4377.3720697273374
  0
LINE
  8
_0-7_
  6
CONTINUOUS
 62
    7
 10
3471.0763916799237
 20
3347.1735475793393
 11
4791.0448796293849
 21
3347.1735475793393
  0
LINE
  8
_0-7_
  6
CONTINUOUS
 62
    7
 10
1760.0542083463437
 20
3607.1955673669863
 11
3071.0646206141009
 21
3607.1955673669863
  0
LINE
  8
_0-7_
  6
CONTINUOUS
 62
    7
 10
1741.0876631530015
 20
1902.188375116134
 11
4791.0448796293849
 21
1902.188375116134
  0
LINE
  8
_0-7_
  6
CONTINUOUS
 62
    7
 10
3471.0763916799237
 20
3607.1757486154838
 11
4791.0448796293849
 21
3607.1757486154838
  0
LINE
  8
_0-7_
  6
CONTINUOUS
 62
    7
 10
16706.068376986255
 20
28992.172258535698
 11
16706.068376986255
 21
28022.163284718124
  0
LINE
  8
_0-7_
  6
CONTINUOUS
 62
    7
 10
15736.074267232324
 20
28992.172258535698
 11
16706.068376986258
 21
28992.172258535698
  0
LINE
  8
_0-7_
  6
CONTINUOUS
 62
    7
 10
24136.078679909158
 20
28992.172258535698
 11
25106.067834975219
 21
28992.172258535698
  0
LINE
  8
_0-7_
  6
CONTINUOUS
 62
    7
 10
15736.074267232324
 20
28022.163284718124
 11
15736.074267232324
 21
28992.172258535698
  0
LINE
  8
_0-7_
  6
CONTINUOUS
 62
    7
 10
5981.0618139395273
 20
25047.16058644577
 11
5161.060970287559
 21
25047.20022394881
  0
LINE
  8
_0-7_
  6
CONTINUOUS
 62
    7
 10
5981.0618139395273
 20
25717.173118683662
 11
5981.0618139395273
 21
25047.16058644577
  0
LINE
  8
_0-7_
  6
CONTINUOUS
 62
    7
 10
13906.075163907114
 20
25047.140767694279
 11
13086.074320255142
 21
25047.140767694279
  0
LINE
  8
_0-7_
  6
CONTINUOUS
 62
    7
 10
13906.075163907114
 20
25717.173118683662
 11
13906.075163907114
 21
25047.140767694279
  0
LINE
  8
_0-7_
  6
CONTINUOUS
 62
    7
 10
10501.074923537002
 20
24697.16143481087
 11
10501.074923537002
 21
25047.140767694279
  0
LINE
  8
_0-7_
  6
CONTINUOUS
 62
    7
 10
11181.066197159252
 20
25047.140767694279
 11
10501.074923537002
 21
25047.140767694279
  0
LINE
  8
_0-7_
  6
CONTINUOUS
 62
    7
 10
25106.067834975219
 20
28992.172258535698
 11
25106.067834975219
 21
28022.163284718124
  0
LINE
  8
_0-7_
  6
CONTINUOUS
 62
    7
 10
24136.078679909158
 20
28022.163284718124
 11
24136.078679909158
 21
28992.172258535698
  0
LINE
  8
_0-7_
  6
CONTINUOUS
 62
    7
 10
8161.0749329632708
 20
24697.16143481087
 11
8161.0749329632708
 21
25717.173118683662
  0
LINE
  8
_0-7_
  6
CONTINUOUS
 62
    7
 10
5981.0618139395273
 20
25717.173118683662
 11
8161.0749329632708
 21
25717.173118683662
  0
LINE
  8
_0-7_
  6
CONTINUOUS
 62
    7
 10
11181.066197159252
 20
25717.173118683662
 11
11181.066197159252
 21
25047.140767694279
  0
LINE
  8
_0-7_
  6
CONTINUOUS
 62
    7
 10
11181.066197159252
 20
25717.173118683662
 11
13086.044592127876
 21
25717.173118683662
  0
LINE
  8
_0-7_
  6
CONTINUOUS
 62
    7
 10
13086.074320255142
 20
25047.140767694279
 11
13086.044592127876
 21
25717.173118683662
  0
LINE
  8
_0-7_
  6
CONTINUOUS
 62
    7
 10
5161.060970287559
 20
25047.20022394881
 11
5161.0906984148241
 21
25717.173118683662
  0
LINE
  8
_0-7_
  6
CONTINUOUS
 62
    7
 10
10256.075517392575
 20
26483.276867609038
 11
11481.092366866203
 21
26483.276867609038
  0
LINE
  8
_0-7_
  6
CONTINUOUS
 62
    7
 10
10256.075517392575
 20
24627.508432635309
 11
11484.382279616573
 21
24627.508432635309
  0
LINE
  8
_0-7_
  6
CONTINUOUS
 62
    7
 10
8336.0745087807154
 20
28022.163284718124
 11
8961.0984750949719
 21
28022.163284718124
  0
LINE
  8
_0-7_
  6
CONTINUOUS
 62
    7
 10
25031.068724580294
 20
24697.141616059379
 11
24211.06292624045
 21
24697.141616059379
  0
LINE
  8
_0-7_
  6
CONTINUOUS
 62
    7
 10
22231.080466189021
 20
25717.133481180633
 11
24211.06292624045
 21
25717.133481180633
  0
LINE
  8
_0-7_
  6
CONTINUOUS
 62
    7
 10
22231.080466189021
 20
25047.140767694279
 11
21411.069713161297
 21
25047.140767694279
  0
LINE
  8
_0-7_
  6
CONTINUOUS
 62
    7
 10
22231.080466189021
 20
25717.163209307898
 11
22231.080466189021
 21
25047.140767694279
  0
LINE
  8
_0-7_
  6
CONTINUOUS
 62
    7
 10
16631.079175967093
 20
25717.163209307898
 11
16631.079175967093
 21
24697.141616059379
  0
LINE
  8
_0-7_
  6
CONTINUOUS
 62
    7
 10
16631.079175967093
 20
25717.163209307898
 11
18611.071545394283
 21
25717.163209307898
  0
LINE
  8
_0-7_
  6
CONTINUOUS
 62
    7
 10
18611.071545394283
 20
25047.140767694279
 11
18611.071545394283
 21
25717.163209307898
  0
LINE
  8
_0-7_
  6
CONTINUOUS
 62
    7
 10
25031.068724580294
 20
25717.133481180633
 11
25031.068724580294
 21
24697.141616059379
  0
LINE
  8
_0-7_
  6
CONTINUOUS
 62
    7
 10
19431.072389046235
 20
25717.163209307898
 11
19431.067434358366
 21
25047.140767694279
  0
LINE
  8
_0-7_
  6
CONTINUOUS
 62
    7
 10
15811.058513563617
 20
24697.16143481087
 11
15811.07337762725
 21
25717.163209307898
  0
LINE
  8
_0-7_
  6
CONTINUOUS
 62
    7
 10
19431.067434358366
 20
25047.140767694279
 11
18611.071545394283
 21
25047.140767694279
  0
LINE
  8
_0-7_
  6
CONTINUOUS
 62
    7
 10
21411.069713161297
 20
25047.140767694279
 11
21411.069713161297
 21
25717.163209307898
  0
LINE
  8
_0-7_
  6
CONTINUOUS
 62
    7
 10
24211.06292624045
 20
24697.141616059379
 11
24211.06292624045
 21
25717.133481180633
  0
LINE
  8
_0-7_
  6
CONTINUOUS
 62
    7
 10
19431.072389046235
 20
25717.163209307898
 11
21411.069713161297
 21
25717.163209307898
  0
LINE
  8
_0-7_
  6
CONTINUOUS
 62
    7
 10
16631.079175967093
 20
24697.141616059379
 11
15811.058513563617
 21
24697.16143481087
  0
LINE
  8
_0-7_
  6
CONTINUOUS
 62
    7
 10
25106.067834975219
 20
28022.163284718124
 11
24136.078679909158
 21
28022.163284718124
  0
LINE
  8
_0-7_
  6
CONTINUOUS
 62
    7
 10
16706.068376986255
 20
28022.163284718124
 11
15736.074267232324
 21
28022.163284718124
  0
LINE
  8
_0-7_
  6
CONTINUOUS
 62
    7
 10
35681.071222544211
 20
25047.140767694279
 11
34861.060469516494
 21
25047.140767694279
  0
LINE
  8
_0-7_
  6
CONTINUOUS
 62
    7
 10
35681.071222544211
 20
25717.133481180633
 11
35681.071222544211
 21
25047.140767694279
  0
LINE
  8
_0-7_
  6
CONTINUOUS
 62
    7
 10
27961.058083489639
 20
25047.140767694279
 11
27961.072947553271
 21
25717.133481180633
  0
LINE
  8
_0-7_
  6
CONTINUOUS
 62
    7
 10
28581.06790567232
 20
25047.140767694279
 11
27961.058083489639
 21
25047.140767694279
  0
LINE
  8
_0-7_
  6
CONTINUOUS
 62
    7
 10
28581.06790567232
 20
25047.140767694279
 11
28581.06790567232
 21
24697.141616059379
  0
LINE
  8
_0-7_
  6
CONTINUOUS
 62
    7
 10
34861.060469516494
 20
25047.140767694279
 11
34861.060469516494
 21
25717.133481180633
  0
LINE
  8
_0-7_
  6
CONTINUOUS
 62
    7
 10
28781.063881829482
 20
25907.135851889797
 11
28781.063881829482
 21
24897.142546904418
  0
LINE
  8
_0-7_
  6
CONTINUOUS
 62
    7
 10
32681.072123932153
 20
25717.133481180633
 11
32681.072123932153
 21
24697.141616059379
  0
LINE
  8
_0-7_
  6
CONTINUOUS
 62
    7
 10
32451.060648615792
 20
24597.175833451987
 11
32701.064289516034
 21
24597.175833451987
  0
LINE
  8
_0-7_
  6
CONTINUOUS
 62
    7
 10
32451.060648615792
 20
24347.142464424483
 11
32451.060648615792
 21
24597.175833451987
  0
LINE
  8
_0-7_
  6
CONTINUOUS
 62
    7
 10
32701.064289516034
 20
24347.142464424483
 11
32451.060648615792
 21
24347.142464424483
  0
LINE
  8
_0-7_
  6
CONTINUOUS
 62
    7
 10
28898.762492348829
 20
26521.814429916765
 11
26077.320435449917
 21
26521.814429916765
  0
LINE
  8
_0-7_
  6
CONTINUOUS
 62
    7
 10
33971.059795537556
 20
23551.171856976205
 11
33971.059795537556
 21
23597.171179226777
  0
LINE
  8
_0-7_
  6
CONTINUOUS
 62
    7
 10
32701.064289516034
 20
24597.175833451987
 11
32701.064289516034
 21
24347.142464424483
  0
LINE
  8
_0-7_
  6
CONTINUOUS
 62
    7
 10
33971.059795537556
 20
24347.142464424483
 11
33971.059795537556
 21
24393.141786675012
  0
LINE
  8
_0-7_
  6
CONTINUOUS
 62
    7
 10
35795.06868121941
 20
23551.171856976205
 11
33971.059795537556
 21
23551.171856976205
  0
LINE
  8
_0-7_
  6
CONTINUOUS
 62
    7
 10
35841.058094094194
 20
23597.171179226777
 11
33971.059795537556
 21
23597.171179226777
  0
LINE
  8
_0-7_
  6
CONTINUOUS
 62
    7
 10
35841.058094094194
 20
23397.160339005964
 11
34445.173878492583
 21
23397.160339005964
  0
LINE
  8
_0-7_
  6
CONTINUOUS
 62
    7
 10
35829.057840055989
 20
23409.170502419932
 11
34440.392604691223
 21
23409.170502419932
  0
LINE
  8
_0-7_
  6
CONTINUOUS
 62
    7
 10
35829.057840055989
 20
23585.170925188536
 11
33971.059795537556
 21
23585.170925188536
  0
LINE
  8
_0-7_
  6
CONTINUOUS
 62
    7
 10
35795.06868121941
 20
23443.169570632253
 11
35795.06868121941
 21
23551.171856976205
  0
LINE
  8
_0-7_
  6
CONTINUOUS
 62
    7
 10
35841.058094094194
 20
23397.160339005964
 11
35841.058094094194
 21
23597.171179226777
  0
LINE
  8
_0-7_
  6
CONTINUOUS
 62
    7
 10
35829.057840055989
 20
23409.170502419932
 11
35829.057840055989
 21
23585.170925188536
  0
LINE
  8
_0-7_
  6
CONTINUOUS
 62
    7
 10
31851.062810768537
 20
25869.21267087883
 11
31861.046506840801
 21
25869.21267087883
  0
LINE
  8
_0-7_
  6
CONTINUOUS
 62
    7
 10
35021.072114505863
 20
23597.171179226777
 11
35021.072114505863
 21
24347.142464424483
  0
LINE
  8
_0-7_
  6
CONTINUOUS
 62
    7
 10
34521.064832705364
 20
23397.160339005964
 11
34521.064832705364
 21
23206.989508908973
  0
LINE
  8
_0-7_
  6
CONTINUOUS
 62
    7
 10
35795.06868121941
 20
23443.169570632253
 11
34426.826669283844
 21
23443.169570632253
  0
LINE
  8
_0-7_
  6
CONTINUOUS
 62
    7
 10
32701.064289516034
 20
22647.159325680961
 11
32701.064289516034
 21
22397.175503532216
  0
LINE
  8
_0-7_
  6
CONTINUOUS
 62
    7
 10
32451.060648615792
 20
22647.159325680961
 11
32701.064289516034
 21
22647.159325680961
  0
LINE
  8
_0-7_
  6
CONTINUOUS
 62
    7
 10
32701.064289516034
 20
22397.175503532216
 11
32451.060648615792
 21
22397.175503532216
  0
LINE
  8
_0-7_
  6
CONTINUOUS
 62
    7
 10
32451.060648615792
 20
22397.175503532216
 11
32451.060648615792
 21
22647.159325680961
  0
LINE
  8
_0-7_
  6
CONTINUOUS
 62
    7
 10
35521.074441618489
 20
23597.171179226777
 11
35521.074441618489
 21
24347.142464424483
  0
LINE
  8
_0-7_
  6
CONTINUOUS
 62
    7
 10
35771.068173142979
 20
23597.171179226777
 11
35771.068173142979
 21
24347.142464424483
  0
LINE
  8
_0-7_
  6
CONTINUOUS
 62
    7
 10
35271.070800718232
 20
23597.171179226777
 11
35271.070800718232
 21
24347.142464424483
  0
LINE
  8
_0-7_
  6
CONTINUOUS
 62
    7
 10
34271.056237117241
 20
23597.171179226777
 11
34271.056237117241
 21
24347.142464424483
  0
LINE
  8
_0-7_
  6
CONTINUOUS
 62
    7
 10
34521.064832705364
 20
23597.171179226777
 11
34521.064832705364
 21
24347.142464424483
  0
LINE
  8
_0-7_
  6
CONTINUOUS
 62
    7
 10
34771.068473605613
 20
23597.171179226777
 11
34771.068473605613
 21
24347.142464424483
  0
LINE
  8
_0-7_
  6
CONTINUOUS
 62
    7
 10
34021.057550904857
 20
23597.171179226777
 11
34021.057550904857
 21
24347.142464424483
  0
LINE
  8
_0-7_
  6
CONTINUOUS
 62
    7
 10
28791.067396653226
 20
25869.21267087883
 11
28781.063881829482
 21
25869.21267087883
  0
LINE
  8
_0-7_
  6
CONTINUOUS
 62
    7
 10
35271.070800718232
 20
23397.160339005964
 11
35271.070800718232
 21
22647.159325680961
  0
LINE
  8
_0-7_
  6
CONTINUOUS
 62
    7
 10
35521.074441618489
 20
23397.160339005964
 11
35521.074441618489
 21
22647.159325680961
  0
LINE
  8
_0-7_
  6
CONTINUOUS
 62
    7
 10
34419.939653134759
 20
23460.382156317122
 11
34773.159351889742
 21
22575.266804584971
  0
LINE
  8
_0-7_
  6
CONTINUOUS
 62
    7
 10
34771.068473605613
 20
23397.160339005964
 11
34771.068473605613
 21
22647.159325680961
  0
LINE
  8
_0-7_
  6
CONTINUOUS
 62
    7
 10
35021.072114505863
 20
23397.160339005964
 11
35021.072114505863
 21
22647.159325680961
  0
LINE
  8
_0-7_
  6
CONTINUOUS
 62
    7
 10
36861.064823279077
 20
24697.131706683605
 11
36861.064823279077
 21
25717.133481180633
  0
LINE
  8
_0-7_
  6
CONTINUOUS
 62
    7
 10
37681.075576306815
 20
25717.133481180633
 11
37681.075576306815
 21
24697.131706683605
  0
LINE
  8
_0-7_
  6
CONTINUOUS
 62
    7
 10
37681.075576306815
 20
24697.131706683605
 11
36861.064823279077
 21
24697.131706683605
  0
LINE
  8
_0-7_
  6
CONTINUOUS
 62
    7
 10
36591.069016794936
 20
24597.175833451987
 11
36841.062748319433
 21
24597.175833451987
  0
LINE
  8
_0-7_
  6
CONTINUOUS
 62
    7
 10
36591.069016794936
 20
24347.142464424483
 11
36591.069016794936
 21
24597.175833451987
  0
LINE
  8
_0-7_
  6
CONTINUOUS
 62
    7
 10
36841.062748319433
 20
24597.175833451987
 11
36841.062748319433
 21
24347.142464424483
  0
LINE
  8
_0-7_
  6
CONTINUOUS
 62
    7
 10
36591.069016794936
 20
22397.175503532216
 11
36591.069016794936
 21
22647.159325680961
  0
LINE
  8
_0-7_
  6
CONTINUOUS
 62
    7
 10
36841.062748319433
 20
22397.175503532216
 11
36591.069016794936
 21
22397.175503532216
  0
LINE
  8
_0-7_
  6
CONTINUOUS
 62
    7
 10
5410.0736736124017
 20
15357.188320915025
 11
5461.0673212430183
 21
15357.188320915025
  0
LINE
  8
_0-7_
  6
CONTINUOUS
 62
    7
 10
5410.0736736124017
 20
15607.201871191035
 11
5461.0673212430183
 21
15607.201871191035
  0
LINE
  8
_0-7_
  6
CONTINUOUS
 62
    7
 10
5410.0736736124017
 20
15107.204498766281
 11
5461.0673212430183
 21
15107.204498766281
  0
LINE
  8
_0-7_
  6
CONTINUOUS
 62
    7
 10
5410.0736736124017
 20
14857.181039114544
 11
5461.0673212430183
 21
14857.181039114544
  0
LINE
  8
_0-7_
  6
CONTINUOUS
 62
    7
 10
5410.0736736124017
 20
14107.180025789568
 11
5461.0673212430183
 21
14107.180025789568
  0
LINE
  8
_0-7_
  6
CONTINUOUS
 62
    7
 10
5410.0736736124017
 20
13607.172743989071
 11
5461.0673212430183
 21
13607.172743989071
  0
LINE
  8
_0-7_
  6
CONTINUOUS
 62
    7
 10
5410.0736736124017
 20
14607.207126341558
 11
5461.0673212430183
 21
14607.207126341558
  0
LINE
  8
_0-7_
  6
CONTINUOUS
 62
    7
 10
36768.248655278293
 20
22647.159325680961
 11
36768.268474029806
 21
24347.142464424483
  0
LINE
  8
_0-7_
  6
CONTINUOUS
 62
    7
 10
36825.049197100801
 20
22647.159325680961
 11
36825.064061164441
 21
24347.142464424483
  0
LINE
  8
_0-7_
  6
CONTINUOUS
 62
    7
 10
36791.045174200604
 20
22647.159325680961
 11
36791.045174200604
 21
24347.142464424483
  0
LINE
  8
_0-7_
  6
CONTINUOUS
 62
    7
 10
36841.062748319433
 20
22647.159325680961
 11
36841.062748319433
 21
22397.175503532216
  0
LINE
  8
_0-7_
  6
CONTINUOUS
 62
    7
 10
5410.0736736124017
 20
14357.203485441312
 11
5461.0673212430183
 21
14357.203485441312
  0
LINE
  8
_0-7_
  6
CONTINUOUS
 62
    7
 10
5461.0673212430183
 20
15607.201871191035
 11
5461.0673212430183
 21
12844.755282844187
  0
LINE
  8
_0-7_
  6
CONTINUOUS
 62
    7
 10
4712.6518080386631
 20
13107.19519031582
 11
5361.0619011325979
 21
13107.19519031582
  0
LINE
  8
_0-7_
  6
CONTINUOUS
 62
    7
 10
5410.0736736124017
 20
13857.196203640825
 11
5461.0673212430183
 21
13857.196203640825
  0
LINE
  8
_0-7_
  6
CONTINUOUS
 62
    7
 10
5361.0817198841177
 20
15707.217200677188
 11
5410.0736736124017
 21
15707.217200677188
  0
LINE
  8
_0-7_
  6
CONTINUOUS
 62
    7
 10
5410.0736736124017
 20
15707.217200677188
 11
5410.0736736124017
 21
12865.366784412719
  0
LINE
  8
_0-7_
  6
CONTINUOUS
 62
    7
 10
5361.0817198841177
 20
15707.217200677188
 11
5361.0619011325979
 21
12885.215264048185
  0
LINE
  8
_0-7_
  6
CONTINUOUS
 62
    7
 10
10261.069842772643
 20
8387.1811498733168
 11
8981.0757766152328
 21
8387.1811498733168
  0
LINE
  8
_0-7_
  6
CONTINUOUS
 62
    7
 10
10261.069842772643
 20
8387.1811498733168
 11
10261.069842772643
 21
9007.1909720560088
  0
LINE
  8
_0-7_
  6
CONTINUOUS
 62
    7
 10
8981.0757766152328
 20
9007.1909720560088
 11
8981.0757766152328
 21
8387.1811498733168
  0
LINE
  8
_0-7_
  6
CONTINUOUS
 62
    7
 10
5410.0736736124017
 20
13357.179012464564
 11
5461.0673212430183
 21
13357.179012464564
  0
LINE
  8
_0-7_
  6
CONTINUOUS
 62
    7
 10
5410.0736736124017
 20
13107.19519031582
 11
5461.0673212430183
 21
13107.19519031582
  0
LINE
  8
_0-7_
  6
CONTINUOUS
 62
    7
 10
8151.0664634516269
 20
4901.7465065071601
 11
8151.0664634516269
 21
9007.1909720560088
  0
LINE
  8
_0-7_
  6
CONTINUOUS
 62
    7
 10
5981.0618139395273
 20
9007.1909720560106
 11
5981.0618139395273
 21
8387.1811498733168
  0
LINE
  8
_0-7_
  6
CONTINUOUS
 62
    7
 10
5981.0618139395273
 20
8387.1811498733168
 11
6436.0607110648916
 21
8387.1811498733168
  0
LINE
  8
_0-7_
  6
CONTINUOUS
 62
    7
 10
10821.058576012695
 20
7207.1925038263261
 11
11421.06136854784
 21
9007.1909720560088
  0
LINE
  8
_0-7_
  6
CONTINUOUS
 62
    7
 10
5996.074518206984
 20
7147.1813242594807
 11
6216.0626599480674
 21
7147.1813242594807
  0
LINE
  8
_0-7_
  6
CONTINUOUS
 62
    7
 10
9921.0395231463717
 20
6607.1599831639159
 11
10821.04866663695
 21
7207.1726850748063
  0
LINE
  8
_0-7_
  6
CONTINUOUS
 62
    7
 10
9833.00462894691
 20
7173.4213512563428
 11
10332.219160687087
 21
7506.2574640851207
  0
LINE
  8
_0-7_
  6
CONTINUOUS
 62
    7
 10
18621.065150842274
 20
12457.169868973987
 11
18621.065150842274
 21
13957.171895623952
  0
LINE
  8
_0-7_
  6
CONTINUOUS
 62
    7
 10
18621.065150842274
 20
13957.171895623952
 11
22221.062087301619
 21
13957.171895623952
  0
LINE
  8
_0-7_
  6
CONTINUOUS
 62
    7
 10
22221.062087301619
 20
12457.169868973987
 11
22221.062087301619
 21
13957.171895623952
  0
LINE
  8
_0-7_
  6
CONTINUOUS
 62
    7
 10
18621.065150842274
 20
12457.169868973987
 11
22221.062087301619
 21
12457.169868973987
  0
LINE
  8
_0-7_
  6
CONTINUOUS
 62
    7
 10
6186.0768889161308
 20
5622.1878519576566
 11
6436.0607110648916
 21
5622.1878519576566
  0
LINE
  8
_0-7_
  6
CONTINUOUS
 62
    7
 10
12461.010716437887
 20
5393.0236282682899
 11
12305.780345249855
 21
4772.1417810192551
  0
LINE
  8
_0-7_
  6
CONTINUOUS
 62
    7
 10
12975.178496190983
 20
5264.4792059860801
 11
12819.967943754476
 21
4643.5973587370399
  0
LINE
  8
_0-7_
  6
CONTINUOUS
 62
    7
 10
13489.361140007713
 20
5135.934783703854
 11
13334.145632883337
 21
4515.0529364548301
  0
LINE
  8
_0-7_
  6
CONTINUOUS
 62
    7
 10
9578.3435814422537
 20
2057.1908306618124
 11
9154.3907585544766
 21
2057.1908306618124
  0
LINE
  8
_0-7_
  6
CONTINUOUS
 62
    7
 10
10918.497467802804
 20
2989.4054453532335
 11
10763.257187239038
 21
2368.5037793526871
  0
LINE
  8
_0-7_
  6
CONTINUOUS
 62
    7
 10
11432.675156931658
 20
2860.8610230710182
 11
11277.434876367888
 21
2239.9791758219807
  0
LINE
  8
_0-7_
  6
CONTINUOUS
 62
    7
 10
11946.833027309005
 20
2732.2967820372896
 11
11791.612565496747
 21
2111.4248441640083
  0
LINE
  8
_0-7_
  6
CONTINUOUS
 62
    7
 10
12461.010716437887
 20
2603.7523597550771
 11
12305.780345249855
 21
1982.8903312575391
  0
LINE
  8
_0-7_
  6
CONTINUOUS
 62
    7
 10
13489.361140007713
 20
6065.7116919597738
 11
13334.145632883337
 21
5444.8100259592338
  0
LINE
  8
_0-7_
  6
CONTINUOUS
 62
    7
 10
14003.538829136574
 20
5937.1672696775649
 11
13848.323322012198
 21
5316.265603677024
  0
LINE
  8
_0-7_
  6
CONTINUOUS
 62
    7
 10
12975.178496190983
 20
4334.7419352331799
 11
12819.967943754476
 21
3713.860087984156
  0
LINE
  8
_0-7_
  6
CONTINUOUS
 62
    7
 10
13489.361140007713
 20
4206.1975129509537
 11
13334.145632883337
 21
3585.2859375746647
  0
LINE
  8
_0-7_
  6
CONTINUOUS
 62
    7
 10
14003.538829136574
 20
4077.6431812929986
 11
13848.323322012198
 21
3456.7514246682121
  0
LINE
  8
_0-7_
  6
CONTINUOUS
 62
    7
 10
14517.721472953315
 20
3949.1086683865291
 11
14362.491101765306
 21
3328.1970930102402
  0
LINE
  8
_0-7_
  6
CONTINUOUS
 62
    7
 10
14517.721472953315
 20
2089.5746706262116
 11
14362.491101765306
 21
1468.6928233771766
  0
LINE
  8
_0-7_
  6
CONTINUOUS
 62
    7
 10
14517.721472953315
 20
4878.8459391394299
 11
14362.491101765306
 21
4257.964091890406
  0
LINE
  8
_0-7_
  6
CONTINUOUS
 62
    7
 10
14517.721472953315
 20
3019.3515788821259
 11
14362.491101765306
 21
2398.4499128815796
  0
LINE
  8
_0-7_
  6
CONTINUOUS
 62
    7
 10
11946.833027309005
 20
4591.830779797604
 11
11791.612565496747
 21
3970.9489325485806
  0
LINE
  8
_0-7_
  6
CONTINUOUS
 62
    7
 10
14517.721472953315
 20
6738.399755651244
 11
14362.491101765306
 21
6117.488180274955
  0
LINE
  8
_0-7_
  6
CONTINUOUS
 62
    7
 10
14517.721472953315
 20
5808.6129380195761
 11
14362.491101765306
 21
5187.750909522063
  0
LINE
  8
_0-7_
  6
CONTINUOUS
 62
    7
 10
14003.538829136574
 20
5007.390361421656
 11
13848.323322012198
 21
4386.4986047968586
  0
LINE
  8
_0-7_
  6
CONTINUOUS
 62
    7
 10
11946.833027309005
 20
3662.0736902932121
 11
11791.612565496747
 21
3041.1720242926689
  0
LINE
  8
_0-7_
  6
CONTINUOUS
 62
    7
 10
13489.361140007713
 20
2346.663515190653
 11
13334.145632883337
 21
1725.7816679415952
  0
LINE
  8
_0-7_
  6
CONTINUOUS
 62
    7
 10
14003.538829136574
 20
3147.8960011643353
 11
13848.323322012198
 21
2526.9943351637948
  0
LINE
  8
_0-7_
  6
CONTINUOUS
 62
    7
 10
14003.538829136574
 20
2218.109183532681
 11
13848.323322012198
 21
1597.237245659403
  0
LINE
  8
_0-7_
  6
CONTINUOUS
 62
    7
 10
12975.178496190983
 20
2475.1980280970997
 11
12819.967943754476
 21
1854.3161808480761
  0
LINE
  8
_0-7_
  6
CONTINUOUS
 62
    7
 10
12461.010716437887
 20
4463.286357515406
 11
12305.780345249855
 21
3842.3946008906086
  0
LINE
  8
_0-7_
  6
CONTINUOUS
 62
    7
 10
10918.497467802804
 20
2059.6285370973018
 11
10763.257187239038
 21
1438.7466898482784
  0
LINE
  8
_0-7_
  6
CONTINUOUS
 62
    7
 10
12461.010716437887
 20
3533.5193586352402
 11
12305.780345249855
 21
2912.6276020104428
  0
LINE
  8
_0-7_
  6
CONTINUOUS
 62
    7
 10
12975.178496190983
 20
3404.9848457287766
 11
12819.967943754476
 21
2784.0732703524708
  0
LINE
  8
_0-7_
  6
CONTINUOUS
 62
    7
 10
13489.361140007713
 20
3276.4404234465614
 11
13334.145632883337
 21
2655.538757446021
  0
LINE
  8
_0-7_
  6
CONTINUOUS
 62
    7
 10
11432.675156931658
 20
3790.6181125754101
 11
11277.434876367888
 21
3169.7164465748783
  0
LINE
  8
_0-7_
  6
CONTINUOUS
 62
    7
 10
4791.0448796293849
 20
1902.188375116134
 11
4791.0448796293849
 21
5842.1958124502398
  0
LINE
  8
_0-7_
  6
CONTINUOUS
 62
    7
 10
9671.0656103733745
 20
1907.1827004962074
 11
9164.3992280661441
 21
1907.1827004962074
  0
LINE
  8
_0-7_
  6
CONTINUOUS
 62
    7
 10
10404.339597425452
 20
1258.4158698751423
 11
10249.08940748592
 21
637.51420387460484
  0
LINE
  8
_0-7_
  6
CONTINUOUS
 62
    7
 10
14003.538829136574
 20
1288.3620034040177
 11
13848.323322012198
 21
667.4801561549998
  0
LINE
  8
_0-7_
  6
CONTINUOUS
 62
    7
 10
12461.010716437887
 20
1673.9952702506684
 11
12305.780345249855
 21
1053.1035136258878
  0
LINE
  8
_0-7_
  6
CONTINUOUS
 62
    7
 10
12975.178496190983
 20
1545.4409385926965
 11
12819.967943754476
 21
924.56900071942413
  0
LINE
  8
_0-7_
  6
CONTINUOUS
 62
    7
 10
13489.361140007713
 20
1416.8965163104871
 11
13334.145632883337
 21
796.02457843721481
  0
LINE
  8
_0-7_
  6
CONTINUOUS
 62
    7
 10
11432.675156931658
 20
1931.0742054393642
 11
11277.434876367888
 21
1310.2121769418261
  0
LINE
  8
_0-7_
  6
CONTINUOUS
 62
    7
 10
11946.85284606053
 20
1802.5396925328834
 11
11791.612565496747
 21
1181.6479359081142
  0
LINE
  8
_0-7_
  6
CONTINUOUS
 62
    7
 10
21746.051205840842
 20
6447.173111613938
 11
21746.051205840842
 21
5807.1760785352353
  0
LINE
  8
_0-7_
  6
CONTINUOUS
 62
    7
 10
21216.058153008441
 20
6447.173111613938
 11
21216.058153008441
 21
5807.1760785352353
  0
LINE
  8
_0-7_
  6
CONTINUOUS
 62
    7
 10
20156.067092655746
 20
3947.1664307387272
 11
20156.067092655746
 21
4587.1535544416728
  0
LINE
  8
_0-7_
  6
CONTINUOUS
 62
    7
 10
24131.054626401826
 20
5517.1682877156708
 11
24131.054626401826
 21
4877.1811640127425
  0
LINE
  8
_0-7_
  6
CONTINUOUS
 62
    7
 10
23601.051664193662
 20
5517.1682877156708
 11
23601.051664193662
 21
4877.1811640127425
  0
LINE
  8
_0-7_
  6
CONTINUOUS
 62
    7
 10
23071.03879260975
 20
5517.1682877156708
 11
23071.03879260975
 21
4877.1811640127425
  0
LINE
  8
_0-7_
  6
CONTINUOUS
 62
    7
 10
22541.045739777335
 20
5517.1682877156708
 11
22541.045739777335
 21
4877.1811640127425
  0
LINE
  8
_0-7_
  6
CONTINUOUS
 62
    7
 10
22011.052686944924
 20
5517.1682877156708
 11
22011.052686944924
 21
4877.1811640127425
  0
LINE
  8
_0-7_
  6
CONTINUOUS
 62
    7
 10
21746.051205840842
 20
3947.1664307387272
 11
21746.051205840842
 21
4587.1535544416728
  0
LINE
  8
_0-7_
  6
CONTINUOUS
 62
    7
 10
21216.058153008441
 20
3947.1664307387272
 11
21216.058153008441
 21
4587.1535544416728
  0
LINE
  8
_0-7_
  6
CONTINUOUS
 62
    7
 10
17506.062190990691
 20
6447.173111613938
 11
17506.062190990691
 21
5807.1760785352353
  0
LINE
  8
_0-7_
  6
CONTINUOUS
 62
    7
 10
22806.057130257169
 20
3947.1664307387272
 11
22806.057130257169
 21
4587.1535544416728
  0
LINE
  8
_0-7_
  6
CONTINUOUS
 62
    7
 10
22276.064077424769
 20
3947.1664307387272
 11
22276.064077424769
 21
4587.1535544416728
  0
LINE
  8
_0-7_
  6
CONTINUOUS
 62
    7
 10
18566.063160719146
 20
6447.173111613938
 11
18566.063160719146
 21
5807.1760785352353
  0
LINE
  8
_0-7_
  6
CONTINUOUS
 62
    7
 10
19096.06612292731
 20
6447.173111613938
 11
19096.06612292731
 21
5807.1760785352353
  0
LINE
  8
_0-7_
  6
CONTINUOUS
 62
    7
 10
18566.063160719146
 20
3947.1664307387272
 11
18566.063160719146
 21
4587.1535544416728
  0
LINE
  8
_0-7_
  6
CONTINUOUS
 62
    7
 10
19096.06612292731
 20
3947.1664307387272
 11
19096.06612292731
 21
4587.1535544416728
  0
LINE
  8
_0-7_
  6
CONTINUOUS
 62
    7
 10
9071.0628178382412
 20
3307.1793070357812
 11
9231.0695081397389
 21
907.16813689522837
  0
LINE
  8
_0-7_
  6
CONTINUOUS
 62
    7
 10
19626.054221071841
 20
3947.1664307387272
 11
19626.054221071841
 21
4587.1535544416728
  0
LINE
  8
_0-7_
  6
CONTINUOUS
 62
    7
 10
16711.057747678456
 20
5517.1682877156708
 11
16711.057747678456
 21
4877.1811640127425
  0
LINE
  8
_0-7_
  6
CONTINUOUS
 62
    7
 10
17241.075573950252
 20
5517.1682877156708
 11
17241.075573950252
 21
4877.1811640127425
  0
LINE
  8
_0-7_
  6
CONTINUOUS
 62
    7
 10
17771.068626782653
 20
5517.1682877156708
 11
17771.068626782653
 21
4877.1811640127425
  0
LINE
  8
_0-7_
  6
CONTINUOUS
 62
    7
 10
18301.066634302947
 20
5517.1682877156708
 11
18301.066634302947
 21
4877.1811640127425
  0
LINE
  8
_0-7_
  6
CONTINUOUS
 62
    7
 10
18831.059687135348
 20
5517.1682877156708
 11
18831.059687135348
 21
4877.1811640127425
  0
LINE
  8
_0-7_
  6
CONTINUOUS
 62
    7
 10
23866.058099985617
 20
6447.173111613938
 11
23866.058099985617
 21
5807.1760785352353
  0
LINE
  8
_0-7_
  6
CONTINUOUS
 62
    7
 10
23336.060092465333
 20
6447.173111613938
 11
23336.060092465333
 21
5807.1760785352353
  0
LINE
  8
_0-7_
  6
CONTINUOUS
 62
    7
 10
22806.057130257169
 20
6447.173111613938
 11
22806.057130257169
 21
5807.1760785352353
  0
LINE
  8
_0-7_
  6
CONTINUOUS
 62
    7
 10
20686.060145488168
 20
6447.173111613938
 11
20686.060145488168
 21
5807.1760785352353
  0
LINE
  8
_0-7_
  6
CONTINUOUS
 62
    7
 10
20156.067092655746
 20
6447.173111613938
 11
20156.067092655746
 21
5807.1760785352353
  0
LINE
  8
_0-7_
  6
CONTINUOUS
 62
    7
 10
23336.060092465333
 20
3947.1664307387272
 11
23336.060092465333
 21
4587.1535544416728
  0
LINE
  8
_0-7_
  6
CONTINUOUS
 62
    7
 10
22276.064077424769
 20
2727.1835441481671
 11
22276.064077424769
 21
2087.16669231797
  0
LINE
  8
_0-7_
  6
CONTINUOUS
 62
    7
 10
21746.051205840842
 20
2727.1835441481671
 11
21746.051205840842
 21
2087.16669231797
  0
LINE
  8
_0-7_
  6
CONTINUOUS
 62
    7
 10
21216.058153008441
 20
2727.1835441481671
 11
21216.058153008441
 21
2087.16669231797
  0
LINE
  8
_0-7_
  6
CONTINUOUS
 62
    7
 10
20686.060145488168
 20
2727.1835441481671
 11
20686.060145488168
 21
2087.16669231797
  0
LINE
  8
_0-7_
  6
CONTINUOUS
 62
    7
 10
22806.057130257169
 20
2727.1835441481671
 11
22806.057130257169
 21
2087.16669231797
  0
LINE
  8
_0-7_
  6
CONTINUOUS
 62
    7
 10
16446.066175950101
 20
2727.1835441481671
 11
16446.066175950101
 21
2087.16669231797
  0
LINE
  8
_0-7_
  6
CONTINUOUS
 62
    7
 10
16976.07409284616
 20
2727.1835441481671
 11
16976.07409284616
 21
2087.16669231797
  0
LINE
  8
_0-7_
  6
CONTINUOUS
 62
    7
 10
19096.06612292731
 20
2727.1835441481671
 11
19096.06612292731
 21
2087.16669231797
  0
LINE
  8
_0-7_
  6
CONTINUOUS
 62
    7
 10
19626.054221071841
 20
2727.1835441481671
 11
19626.054221071841
 21
2087.16669231797
  0
LINE
  8
_0-7_
  6
CONTINUOUS
 62
    7
 10
19891.065611551675
 20
5517.1682877156708
 11
19891.065611551675
 21
4877.1811640127425
  0
LINE
  8
_0-7_
  6
CONTINUOUS
 62
    7
 10
20421.053709696207
 20
5517.1682877156708
 11
20421.053709696207
 21
4877.1811640127425
  0
LINE
  8
_0-7_
  6
CONTINUOUS
 62
    7
 10
24396.061062193781
 20
6447.173111613938
 11
24396.061062193781
 21
5807.1760785352353
  0
LINE
  8
_0-7_
  6
CONTINUOUS
 62
    7
 10
22276.064077424769
 20
6447.173111613938
 11
22276.064077424769
 21
5807.1760785352353
  0
LINE
  8
_0-7_
  6
CONTINUOUS
 62
    7
 10
16976.07409284616
 20
6447.173111613938
 11
16976.07409284616
 21
5807.1958972867432
  0
LINE
  8
_0-7_
  6
CONTINUOUS
 62
    7
 10
16446.066175950101
 20
3947.1664307387272
 11
16446.066175950101
 21
4587.1535544416728
  0
LINE
  8
_0-7_
  6
CONTINUOUS
 62
    7
 10
16976.07409284616
 20
3947.1664307387272
 11
16976.07409284616
 21
4587.1535544416728
  0
LINE
  8
_0-7_
  6
CONTINUOUS
 62
    7
 10
17506.062190990691
 20
3947.1664307387272
 11
17506.062190990691
 21
4587.1535544416728
  0
LINE
  8
_0-7_
  6
CONTINUOUS
 62
    7
 10
20686.060145488168
 20
3947.1664307387272
 11
20686.060145488168
 21
4587.1535544416728
  0
LINE
  8
_0-7_
  6
CONTINUOUS
 62
    7
 10
21481.05467942464
 20
5517.1682877156708
 11
21481.05467942464
 21
4877.1811640127425
  0
LINE
  8
_0-7_
  6
CONTINUOUS
 62
    7
 10
20951.051717216476
 20
5517.1682877156708
 11
20951.051717216476
 21
4877.1811640127425
  0
LINE
  8
_0-7_
  6
CONTINUOUS
 62
    7
 10
23866.058099985617
 20
3947.1664307387272
 11
23866.058099985617
 21
4587.1535544416728
  0
LINE
  8
_0-7_
  6
CONTINUOUS
 62
    7
 10
19626.054221071841
 20
6447.173111613938
 11
19626.054221071841
 21
5807.1760785352353
  0
LINE
  8
_0-7_
  6
CONTINUOUS
 62
    7
 10
19361.067604031381
 20
5517.1682877156708
 11
19361.067604031381
 21
4877.1811640127425
  0
LINE
  8
_0-7_
  6
CONTINUOUS
 62
    7
 10
16446.066175950101
 20
6447.173111613938
 11
16446.066175950101
 21
5807.1958972867432
  0
LINE
  8
_0-7_
  6
CONTINUOUS
 62
    7
 10
18036.075062574615
 20
3947.1664307387272
 11
18036.075062574615
 21
4587.1535544416728
  0
LINE
  8
_0-7_
  6
CONTINUOUS
 62
    7
 10
17241.075573950252
 20
3657.1784586706799
 11
17241.075573950252
 21
3017.1715162162145
  0
LINE
  8
_0-7_
  6
CONTINUOUS
 62
    7
 10
17771.068626782653
 20
3657.1784586706799
 11
17771.068626782653
 21
3017.1715162162145
  0
LINE
  8
_0-7_
  6
CONTINUOUS
 62
    7
 10
15031.884298018541
 20
4750.2916074814575
 11
14876.673745582036
 21
4129.4097602324345
  0
LINE
  8
_0-7_
  6
CONTINUOUS
 62
    7
 10
15546.061987147402
 20
4621.7570945750057
 11
15390.831615959394
 21
4000.8752473259532
  0
LINE
  8
_0-7_
  6
CONTINUOUS
 62
    7
 10
15546.061987147402
 20
6481.3208204625707
 11
15390.851434710895
 21
5860.4092450862826
  0
LINE
  8
_0-7_
  6
CONTINUOUS
 62
    7
 10
16711.057747678456
 20
3657.1784586706799
 11
16711.057747678456
 21
3017.1715162162145
  0
LINE
  8
_0-7_
  6
CONTINUOUS
 62
    7
 10
15031.884298018541
 20
5680.0784251131235
 11
14876.673745582036
 21
5059.1668497368264
  0
LINE
  8
_0-7_
  6
CONTINUOUS
 62
    7
 10
15546.061987147402
 20
5551.5340028309165
 11
15390.851434710895
 21
4930.6323368303737
  0
LINE
  8
_0-7_
  6
CONTINUOUS
 62
    7
 10
15031.884298018541
 20
6609.8553333690515
 11
14876.673745582036
 21
5988.9437579927289
  0
LINE
  8
_0-7_
  6
CONTINUOUS
 62
    7
 10
16711.057747678456
 20
5517.1682877156708
 11
24131.054626401826
 21
5517.1682877156708
  0
LINE
  8
_0-7_
  6
CONTINUOUS
 62
    7
 10
16711.057747678456
 20
4877.1811640127425
 11
24131.054626401826
 21
4877.1811640127425
  0
LINE
  8
_0-7_
  6
CONTINUOUS
 62
    7
 10
16446.066175950101
 20
5807.1958972867432
 11
24396.061062193781
 21
5807.1760785352353
  0
LINE
  8
_0-7_
  6
CONTINUOUS
 62
    7
 10
18036.075062574615
 20
6447.173111613938
 11
18036.075062574615
 21
5807.1760785352353
  0
LINE
  8
_0-7_
  6
CONTINUOUS
 62
    7
 10
16446.066175950101
 20
4587.1535544416728
 11
24396.061062193781
 21
4587.1733731931926
  0
LINE
  8
_0-7_
  6
CONTINUOUS
 62
    7
 10
16446.066175950101
 20
3947.1664307387272
 11
24396.061062193781
 21
3947.1664307387272
  0
LINE
  8
_0-7_
  6
CONTINUOUS
 62
    7
 10
16711.057747678456
 20
1797.1688108741659
 11
24131.054626401826
 21
1797.1688108741659
  0
LINE
  8
_0-7_
  6
CONTINUOUS
 62
    7
 10
16446.066175950101
 20
2087.16669231797
 11
24396.061062193781
 21
2087.16669231797
  0
LINE
  8
_0-7_
  6
CONTINUOUS
 62
    7
 10
16446.066175950101
 20
2727.1835441481671
 11
24396.061062193781
 21
2727.1835441481671
  0
LINE
  8
_0-7_
  6
CONTINUOUS
 62
    7
 10
24396.061062193781
 20
2727.1835441481671
 11
24396.061062193781
 21
2087.16669231797
  0
LINE
  8
_0-7_
  6
CONTINUOUS
 62
    7
 10
23866.058099985617
 20
2727.1835441481671
 11
23866.058099985617
 21
2087.16669231797
  0
LINE
  8
_0-7_
  6
CONTINUOUS
 62
    7
 10
23336.060092465333
 20
2727.1835441481671
 11
23336.060092465333
 21
2087.16669231797
  0
LINE
  8
_0-7_
  6
CONTINUOUS
 62
    7
 10
20156.067092655746
 20
2727.1835441481671
 11
20156.067092655746
 21
2087.16669231797
  0
LINE
  8
_0-7_
  6
CONTINUOUS
 62
    7
 10
17506.062190990691
 20
2727.1835441481671
 11
17506.062190990691
 21
2087.16669231797
  0
LINE
  8
_0-7_
  6
CONTINUOUS
 62
    7
 10
18036.075062574615
 20
2727.1835441481671
 11
18036.075062574615
 21
2087.16669231797
  0
LINE
  8
_0-7_
  6
CONTINUOUS
 62
    7
 10
18566.063160719146
 20
2727.1835441481671
 11
18566.063160719146
 21
2087.16669231797
  0
LINE
  8
_0-7_
  6
CONTINUOUS
 62
    7
 10
15564.978985461983
 20
3617.1743087513646
 11
25277.187890184926
 21
3617.1743087513646
  0
LINE
  8
_0-7_
  6
CONTINUOUS
 62
    7
 10
15576.062622242954
 20
3707.1811687258759
 11
25266.094344028213
 21
3707.1811687258759
  0
LINE
  8
_0-7_
  6
CONTINUOUS
 62
    7
 10
20421.053709696207
 20
3657.1784586706799
 11
20421.053709696207
 21
3017.1715162162145
  0
LINE
  8
_0-7_
  6
CONTINUOUS
 62
    7
 10
24131.054626401826
 20
3657.1784586706799
 11
24131.054626401826
 21
3017.1715162162145
  0
LINE
  8
_0-7_
  6
CONTINUOUS
 62
    7
 10
23601.051664193662
 20
3657.1784586706799
 11
23601.051664193662
 21
3017.1715162162145
  0
LINE
  8
_0-7_
  6
CONTINUOUS
 62
    7
 10
24396.061062193781
 20
3947.1664307387272
 11
24396.061062193781
 21
4587.1733731931926
  0
LINE
  8
_0-7_
  6
CONTINUOUS
 62
    7
 10
22541.045739777335
 20
3657.1784586706799
 11
22541.045739777335
 21
3017.1715162162145
  0
LINE
  8
_0-7_
  6
CONTINUOUS
 62
    7
 10
18831.059687135348
 20
3657.1784586706799
 11
18831.059687135348
 21
3017.1715162162145
  0
LINE
  8
_0-7_
  6
CONTINUOUS
 62
    7
 10
19361.067604031381
 20
3657.1784586706799
 11
19361.067604031381
 21
3017.1715162162145
  0
LINE
  8
_0-7_
  6
CONTINUOUS
 62
    7
 10
15031.884298018541
 20
2890.8071565999166
 11
14876.673745582036
 21
2269.9054905993648
  0
LINE
  8
_0-7_
  6
CONTINUOUS
 62
    7
 10
15546.061987147402
 20
2762.26273431769
 11
15390.831615959394
 21
2141.3610683171441
  0
LINE
  8
_0-7_
  6
CONTINUOUS
 62
    7
 10
15031.884298018541
 20
3820.5642461043198
 11
14876.648972142664
 21
3199.6625801037766
  0
LINE
  8
_0-7_
  6
CONTINUOUS
 62
    7
 10
22011.052686944924
 20
3657.1784586706799
 11
22011.052686944924
 21
3017.1715162162145
  0
LINE
  8
_0-7_
  6
CONTINUOUS
 62
    7
 10
15546.061987147402
 20
3692.0198238221046
 11
15390.831615959394
 21
3071.1181578215614
  0
LINE
  8
_0-7_
  6
CONTINUOUS
 62
    7
 10
19891.065611551675
 20
3657.1784586706799
 11
19891.065611551675
 21
3017.1715162162145
  0
LINE
  8
_0-7_
  6
CONTINUOUS
 62
    7
 10
18301.066634302947
 20
3657.1784586706799
 11
18301.066634302947
 21
3017.1715162162145
  0
LINE
  8
_0-7_
  6
CONTINUOUS
 62
    7
 10
21481.05467942464
 20
3657.1784586706799
 11
21481.05467942464
 21
3017.1715162162145
  0
LINE
  8
_0-7_
  6
CONTINUOUS
 62
    7
 10
20951.051717216476
 20
3657.1784586706799
 11
20951.051717216476
 21
3017.1715162162145
  0
LINE
  8
_0-7_
  6
CONTINUOUS
 62
    7
 10
16446.066175950101
 20
6447.173111613938
 11
24396.061062193781
 21
6447.173111613938
  0
LINE
  8
_0-7_
  6
CONTINUOUS
 62
    7
 10
23071.03879260975
 20
3657.1784586706799
 11
23071.03879260975
 21
3017.1715162162145
  0
LINE
  8
_0-7_
  6
CONTINUOUS
 62
    7
 10
16446.066175950101
 20
867.17389635165886
 11
24396.061062193781
 21
867.17389635165886
  0
LINE
  8
_0-7_
  6
CONTINUOUS
 62
    7
 10
18301.066634302947
 20
1797.1688108741659
 11
18301.066634302947
 21
1157.1816871712201
  0
LINE
  8
_0-7_
  6
CONTINUOUS
 62
    7
 10
17241.075573950252
 20
1797.1688108741659
 11
17241.075573950252
 21
1157.1816871712201
  0
LINE
  8
_0-7_
  6
CONTINUOUS
 62
    7
 10
17771.068626782653
 20
1797.1688108741659
 11
17771.068626782653
 21
1157.1816871712201
  0
LINE
  8
_0-7_
  6
CONTINUOUS
 62
    7
 10
20421.053709696207
 20
1797.1688108741659
 11
20421.053709696207
 21
1157.1816871712201
  0
LINE
  8
_0-7_
  6
CONTINUOUS
 62
    7
 10
20951.051717216476
 20
1797.1688108741659
 11
20951.051717216476
 21
1157.1816871712201
  0
LINE
  8
_0-7_
  6
CONTINUOUS
 62
    7
 10
19891.065611551675
 20
1797.1688108741659
 11
19891.065611551675
 21
1157.1816871712201
  0
LINE
  8
_0-7_
  6
CONTINUOUS
 62
    7
 10
24131.054626401826
 20
1797.1688108741659
 11
24131.054626401826
 21
1157.1816871712201
  0
LINE
  8
_0-7_
  6
CONTINUOUS
 62
    7
 10
23601.051664193662
 20
1797.1688108741659
 11
23601.051664193662
 21
1157.1816871712201
  0
LINE
  8
_0-7_
  6
CONTINUOUS
 62
    7
 10
23071.03879260975
 20
1797.1688108741659
 11
23071.03879260975
 21
1157.1816871712201
  0
LINE
  8
_0-7_
  6
CONTINUOUS
 62
    7
 10
22541.045739777335
 20
1797.1688108741659
 11
22541.045739777335
 21
1157.1816871712201
  0
LINE
  8
_0-7_
  6
CONTINUOUS
 62
    7
 10
22011.052686944924
 20
1797.1688108741659
 11
22011.052686944924
 21
1157.1816871712201
  0
LINE
  8
_0-7_
  6
CONTINUOUS
 62
    7
 10
21481.05467942464
 20
1797.1688108741659
 11
21481.05467942464
 21
1157.1816871712201
  0
LINE
  8
_0-7_
  6
CONTINUOUS
 62
    7
 10
19361.067604031381
 20
1797.1688108741659
 11
19361.067604031381
 21
1157.1816871712201
  0
LINE
  8
_0-7_
  6
CONTINUOUS
 62
    7
 10
18831.059687135348
 20
1797.1688108741659
 11
18831.059687135348
 21
1157.1816871712201
  0
LINE
  8
_0-7_
  6
CONTINUOUS
 62
    7
 10
34406.071481766892
 20
6622.1627780556273
 11
34406.071481766892
 21
8387.1415123703063
  0
LINE
  8
_0-7_
  6
CONTINUOUS
 62
    7
 10
31078.458511348435
 20
7187.2944773120989
 11
30496.034951401066
 21
7575.6032756123431
  0
LINE
  8
_0-7_
  6
CONTINUOUS
 62
    7
 10
15031.884298018541
 20
1961.0302483440023
 11
14876.648972142664
 21
1340.1484010949616
  0
LINE
  8
_0-7_
  6
CONTINUOUS
 62
    7
 10
15546.061987147402
 20
1832.4858260617872
 11
15390.831615959394
 21
1211.6039788127523
  0
LINE
  8
_0-7_
  6
CONTINUOUS
 62
    7
 10
34861.040650764982
 20
8387.1415123703063
 11
34861.040650764982
 21
9007.171153304489
  0
LINE
  8
_0-7_
  6
CONTINUOUS
 62
    7
 10
31861.046506840797
 20
8387.1514217460517
 11
31861.046506840797
 21
9007.171153304489
  0
LINE
  8
_0-7_
  6
CONTINUOUS
 62
    7
 10
30581.052440683379
 20
8387.1514217460517
 11
31861.046506840797
 21
8387.1514217460517
  0
LINE
  8
_0-7_
  6
CONTINUOUS
 62
    7
 10
30581.052440683379
 20
8387.1514217460517
 11
30581.052440683379
 21
9007.171153304489
  0
LINE
  8
_0-7_
  6
CONTINUOUS
 62
    7
 10
32681.047350492757
 20
9007.171153304489
 11
32681.047350492757
 21
6947.1506652871767
  0
LINE
  8
_0-7_
  6
CONTINUOUS
 62
    7
 10
35681.056358480585
 20
9007.171153304489
 11
35681.056358480585
 21
8377.1429522344133
  0
LINE
  8
_0-7_
  6
CONTINUOUS
 62
    7
 10
29479.035717757564
 20
9007.171153304489
 11
30581.052440683379
 21
9007.171153304489
  0
LINE
  8
_0-7_
  6
CONTINUOUS
 62
    7
 10
29477.752453597408
 20
9007.171153304489
 11
29421.046050844539
 21
9007.171153304489
  0
LINE
  8
_0-7_
  6
CONTINUOUS
 62
    7
 10
30921.077805621782
 20
6607.1798019154248
 11
30021.073616819081
 21
7207.1726850748063
  0
LINE
  8
_0-7_
  6
CONTINUOUS
 62
    7
 10
36861.049959215451
 20
9407.1531962430726
 11
37681.035938803797
 21
9407.1531962430726
  0
LINE
  8
_0-7_
  6
CONTINUOUS
 62
    7
 10
37681.035938803797
 20
9407.1531962430726
 11
37681.035938803797
 21
8387.1415123703063
  0
LINE
  8
_0-7_
  6
CONTINUOUS
 62
    7
 10
36861.049959215451
 20
8377.1429522344133
 11
36861.049959215451
 21
9407.1531962430726
  0
LINE
  8
_0-7_
  6
CONTINUOUS
 62
    7
 10
30021.073616819081
 20
7207.1726850748063
 11
29421.065869596055
 21
9007.171153304489
  0
LINE
  8
_0-7_
  6
CONTINUOUS
 62
    7
 10
25810.242940125339
 20
6609.8553333690515
 11
25965.488175377016
 21
5988.9437579927289
  0
LINE
  8
_0-7_
  6
CONTINUOUS
 62
    7
 10
28022.164249077319
 20
5573.3544482414426
 11
25451.310486248145
 21
4930.6422462061191
  0
LINE
  8
_0-7_
  6
CONTINUOUS
 62
    7
 10
26324.425583942094
 20
5808.6129380195761
 11
26479.660909817983
 21
5187.750909522063
  0
LINE
  8
_0-7_
  6
CONTINUOUS
 62
    7
 10
25810.242940125339
 20
5680.0784251131235
 11
25965.488175377016
 21
5059.1668497368264
  0
LINE
  8
_0-7_
  6
CONTINUOUS
 62
    7
 10
26838.603273070952
 20
6866.9243591819504
 11
26993.838598946855
 21
6246.0425119329274
  0
LINE
  8
_0-7_
  6
CONTINUOUS
 62
    7
 10
26324.425583942094
 20
6738.399755651244
 11
26479.660909817983
 21
6117.488180274955
  0
LINE
  8
_0-7_
  6
CONTINUOUS
 62
    7
 10
34656.065213291381
 20
2372.1900671332095
 11
34406.051663015387
 21
2372.1603390059613
  0
LINE
  8
_0-7_
  6
CONTINUOUS
 62
    7
 10
32691.065729380148
 20
6947.1903027901871
 11
32691.065729380148
 21
5015.3376807764316
  0
LINE
  8
_0-7_
  6
CONTINUOUS
 62
    7
 10
34406.071481766892
 20
6622.1627780556273
 11
34656.065213291381
 21
6622.1627780556273
  0
LINE
  8
_0-7_
  6
CONTINUOUS
 62
    7
 10
31614.164319303086
 20
4738.1724409341841
 11
32691.065729380148
 21
5015.3376807764316
  0
LINE
  8
_0-7_
  6
CONTINUOUS
 62
    7
 10
28895.299165522759
 20
2732.2967820372896
 11
29050.514672647135
 21
2111.4149347882457
  0
LINE
  8
_0-7_
  6
CONTINUOUS
 62
    7
 10
27866.953696640804
 20
2475.1980280970997
 11
28022.164249077319
 21
1854.3161808480761
  0
LINE
  8
_0-7_
  6
CONTINUOUS
 62
    7
 10
27352.776007511944
 20
2346.6734245663983
 11
27507.99151463632
 21
1725.7816679415952
  0
LINE
  8
_0-7_
  6
CONTINUOUS
 62
    7
 10
26838.603273070952
 20
3147.8761824128328
 11
26993.838598946855
 21
2526.9943351637948
  0
LINE
  8
_0-7_
  6
CONTINUOUS
 62
    7
 10
29409.471899963751
 20
3790.5883844481563
 11
29564.692361776018
 21
3169.7164465748783
  0
LINE
  8
_0-7_
  6
CONTINUOUS
 62
    7
 10
28895.299165522759
 20
3662.0538715416928
 11
29050.514672647135
 21
3041.1720242926689
  0
LINE
  8
_0-7_
  6
CONTINUOUS
 62
    7
 10
28381.131385769662
 20
3533.5094492594835
 11
28536.346892894038
 21
2912.6276020104428
  0
LINE
  8
_0-7_
  6
CONTINUOUS
 62
    7
 10
27866.953696640804
 20
3404.9848457287766
 11
28022.164249077319
 21
2784.0732703524708
  0
LINE
  8
_0-7_
  6
CONTINUOUS
 62
    7
 10
27352.776007511944
 20
3276.4305140708047
 11
27507.99151463632
 21
2655.538757446021
  0
LINE
  8
_0-7_
  6
CONTINUOUS
 62
    7
 10
28536.346892894038
 20
4772.1417810192551
 11
25451.310486248145
 21
4000.8455191987054
  0
LINE
  8
_0-7_
  6
CONTINUOUS
 62
    7
 10
28381.131385769662
 20
5393.0335376440525
 11
28536.346892894038
 21
4772.1417810192551
  0
LINE
  8
_0-7_
  6
CONTINUOUS
 62
    7
 10
26838.603273070952
 20
5937.1672696775649
 11
26993.838598946855
 21
5316.265603677024
  0
LINE
  8
_0-7_
  6
CONTINUOUS
 62
    7
 10
25810.242940125339
 20
4750.3213356087226
 11
25965.488175377016
 21
4129.4097602324345
  0
LINE
  8
_0-7_
  6
CONTINUOUS
 62
    7
 10
27866.953696640804
 20
6194.2561142419835
 11
28022.164249077319
 21
5573.3742669929624
  0
LINE
  8
_0-7_
  6
CONTINUOUS
 62
    7
 10
27352.776007511944
 20
6065.7116919597738
 11
27507.99151463632
 21
5444.8100259592338
  0
LINE
  8
_0-7_
  6
CONTINUOUS
 62
    7
 10
29923.644634404739
 20
2059.6285370973018
 11
30078.875005592748
 21
1438.7466898482784
  0
LINE
  8
_0-7_
  6
CONTINUOUS
 62
    7
 10
27866.953696640804
 20
5264.4792059860801
 11
28022.164249077319
 21
4643.5775399855374
  0
LINE
  8
_0-7_
  6
CONTINUOUS
 62
    7
 10
27352.776007511944
 20
5135.934783703854
 11
27507.99151463632
 21
4515.0529364548301
  0
LINE
  8
_0-7_
  6
CONTINUOUS
 62
    7
 10
26838.603273070952
 20
5007.4101801731476
 11
26993.838598946855
 21
4386.4986047968586
  0
LINE
  8
_0-7_
  6
CONTINUOUS
 62
    7
 10
26838.603273070952
 20
4077.6431812929986
 11
26993.838598946855
 21
3456.7514246682121
  0
LINE
  8
_0-7_
  6
CONTINUOUS
 62
    7
 10
26324.425583942094
 20
3949.1086683865291
 11
26479.660909817983
 21
3328.1970930102402
  0
LINE
  8
_0-7_
  6
CONTINUOUS
 62
    7
 10
25810.218166685968
 20
3820.5642461043198
 11
25965.458447249751
 21
3199.6823988552791
  0
LINE
  8
_0-7_
  6
CONTINUOUS
 62
    7
 10
31263.783656701649
 20
2057.1809212860498
 11
31687.756298340922
 21
2057.1809212860498
  0
LINE
  8
_0-7_
  6
CONTINUOUS
 62
    7
 10
33213.086689418378
 20
2017.1569526152438
 11
33213.086689418378
 21
2782.1607608319341
  0
LINE
  8
_0-7_
  6
CONTINUOUS
 62
    7
 10
34656.065213291381
 20
2372.1900671332095
 11
34656.065213291381
 21
6622.1627780556273
  0
LINE
  8
_0-7_
  6
CONTINUOUS
 62
    7
 10
29564.692361776018
 20
3169.7164465748783
 11
25451.310486248145
 21
2141.3709776929181
  0
LINE
  8
_0-7_
  6
CONTINUOUS
 62
    7
 10
26324.425583942094
 20
2089.5944893777195
 11
26479.660909817983
 21
1468.6928233771766
  0
LINE
  8
_0-7_
  6
CONTINUOUS
 62
    7
 10
26324.425583942094
 20
3019.3515788821259
 11
26479.660909817983
 21
2398.4499128815796
  0
LINE
  8
_0-7_
  6
CONTINUOUS
 62
    7
 10
25810.242940125339
 20
2890.7873378483968
 11
25965.488175377016
 21
2269.8856718478455
  0
LINE
  8
_0-7_
  6
CONTINUOUS
 62
    7
 10
33179.067802454548
 20
2017.1569526152438
 11
33179.067802454548
 21
2782.1607608319341
  0
LINE
  8
_0-7_
  6
CONTINUOUS
 62
    7
 10
29923.644634404739
 20
2989.4054453532335
 11
30078.875005592748
 21
2368.4839606011792
  0
LINE
  8
_0-7_
  6
CONTINUOUS
 62
    7
 10
29409.471899963751
 20
2860.8610230710182
 11
29564.692361776018
 21
2239.9791758219807
  0
LINE
  8
_0-7_
  6
CONTINUOUS
 62
    7
 10
26993.838598946855
 20
6246.0425119329274
 11
25451.275803432996
 21
5860.3993357105364
  0
LINE
  8
_0-7_
  6
CONTINUOUS
 62
    7
 10
26324.425583942094
 20
4878.8459391394299
 11
26479.660909817983
 21
4257.964091890406
  0
LINE
  8
_0-7_
  6
CONTINUOUS
 62
    7
 10
28895.299165522759
 20
4591.830779797604
 11
29050.514672647135
 21
3970.9291137970608
  0
LINE
  8
_0-7_
  6
CONTINUOUS
 62
    7
 10
28381.131385769662
 20
4463.286357515406
 11
28536.366711645565
 21
3842.3946008906086
  0
LINE
  8
_0-7_
  6
CONTINUOUS
 62
    7
 10
27866.953696640804
 20
4334.7419352331799
 11
28022.164249077319
 21
3713.860087984156
  0
LINE
  8
_0-7_
  6
CONTINUOUS
 62
    7
 10
27352.776007511944
 20
4206.1975129509537
 11
27507.99151463632
 21
3585.2859375746647
  0
LINE
  8
_0-7_
  6
CONTINUOUS
 62
    7
 10
33316.084741006532
 20
2422.1729584369031
 11
34406.051663015387
 21
2422.1729584369031
  0
LINE
  8
_0-7_
  6
CONTINUOUS
 62
    7
 10
33316.084741006532
 20
2162.17075740077
 11
34406.071481766892
 21
2162.17075740077
  0
LINE
  8
_0-7_
  6
CONTINUOUS
 62
    7
 10
33316.084741006532
 20
1902.1586469888688
 11
34406.071481766892
 21
1902.1586469888688
  0
LINE
  8
_0-7_
  6
CONTINUOUS
 62
    7
 10
34406.051663015387
 20
1267.1955767932502
 11
34406.051663015387
 21
2682.1751594730444
  0
LINE
  8
_0-7_
  6
CONTINUOUS
 62
    7
 10
33316.084741006532
 20
2682.1751594730444
 11
34406.051663015387
 21
2682.1751594730444
  0
LINE
  8
_0-7_
  6
CONTINUOUS
 62
    7
 10
26838.603273070952
 20
2218.109183532681
 11
26993.838598946855
 21
1597.2174269078834
  0
LINE
  8
_0-7_
  6
CONTINUOUS
 62
    7
 10
31171.071537146268
 20
1907.1827004962074
 11
31677.747828829284
 21
1907.1827004962074
  0
LINE
  8
_0-7_
  6
CONTINUOUS
 62
    7
 10
26838.603273070952
 20
1288.3719127797803
 11
26993.818780195339
 21
667.4801561549998
  0
LINE
  8
_0-7_
  6
CONTINUOUS
 62
    7
 10
30437.827278221469
 20
1258.4158698751423
 11
30593.052694721609
 21
637.53402262609029
  0
LINE
  8
_0-7_
  6
CONTINUOUS
 62
    7
 10
28895.299165522759
 20
1802.5496019086574
 11
29050.514672647135
 21
1181.6875734111249
  0
LINE
  8
_0-7_
  6
CONTINUOUS
 62
    7
 10
25810.242940125339
 20
1961.0698858470129
 11
25965.488175377016
 21
1340.1682198464698
  0
LINE
  8
_0-7_
  6
CONTINUOUS
 62
    7
 10
27866.953696640804
 20
1545.4706667199616
 11
28022.164249077319
 21
924.58881947093232
  0
LINE
  8
_0-7_
  6
CONTINUOUS
 62
    7
 10
28381.131385769662
 20
1674.0150890021766
 11
28536.346892894038
 21
1053.1233323774074
  0
LINE
  8
_0-7_
  6
CONTINUOUS
 62
    7
 10
29409.471899963751
 20
1931.1039335665952
 11
29564.692361776018
 21
1310.2220863175716
  0
LINE
  8
_0-7_
  6
CONTINUOUS
 62
    7
 10
31771.064420305672
 20
3307.1793070357812
 11
31611.06763937994
 21
907.16813689522837
  0
LINE
  8
_0-7_
  6
CONTINUOUS
 62
    7
 10
33316.084741006532
 20
1267.1955767932502
 11
33316.084741006532
 21
2682.1751594730444
  0
LINE
  8
_0-7_
  6
CONTINUOUS
 62
    7
 10
27352.776007511944
 20
1416.9262444377523
 11
27507.99151463632
 21
796.04439718871731
  0
LINE
  8
_0-7_
  6
CONTINUOUS
 62
    7
 10
30078.875005592748
 20
2368.5037793526871
 11
25451.310486248145
 21
1211.5742506854871
  0
LINE
  8
_0-7_
  6
CONTINUOUS
 62
    7
 10
13906.075163907114
 20
25717.173118683662
 11
15811.07337762725
 21
25717.163209307898
  0
LINE
  8
_0-7_
  6
CONTINUOUS
 62
    7
 10
40221.071543037716
 20
27917.18335797917
 11
31681.072424394784
 21
27917.18335797917
  0
LINE
  8
_0-7_
  6
CONTINUOUS
 62
    7
 10
34744.481618457357
 20
22647.159325680961
 11
36841.062748319433
 21
22647.159325680961
  0
LINE
  8
_0-7_
  6
CONTINUOUS
 62
    7
 10
36841.062748319433
 20
24347.142464424483
 11
33971.059795537556
 21
24347.142464424483
  0
LINE
  8
_0-7_
  6
CONTINUOUS
 62
    7
 10
36591.069016794936
 20
24393.141786675012
 11
33971.059795537556
 21
24393.141786675012
  0
LINE
  8
_0-7_
  6
CONTINUOUS
 62
    7
 10
36591.069016794936
 20
24359.162537214215
 11
33971.059795537556
 21
24359.162537214215
  0
LINE
  8
_0-7_
  6
CONTINUOUS
 62
    7
 10
36591.069016794936
 20
22601.169912806191
 11
34749.248028195084
 21
22601.169912806191
  0
LINE
  8
_0-7_
  6
CONTINUOUS
 62
    7
 10
36591.069016794936
 20
22635.168981018508
 11
34749.248028195084
 21
22635.168981018508
  0
LINE
  8
_0-7_
  6
CONTINUOUS
 62
    7
 10
35681.071222544211
 20
25717.133481180633
 11
36861.064823279077
 21
25717.133481180633
  0
LINE
  8
_0-7_
  6
CONTINUOUS
 62
    7
 10
36861.049959215451
 20
8377.1429522344133
 11
35681.056358480585
 21
8377.1429522344133
  0
LINE
  8
_0-7_
  6
CONTINUOUS
 62
    7
 10
11085.93618991987
 20
4736.9436783406708
 11
15564.978985461983
 21
3617.1743087513646
  0
LINE
  8
_0-7_
  6
CONTINUOUS
 62
    7
 10
11127.179011808444
 20
4819.4095033663334
 11
15576.062622242954
 21
3707.1811687258759
  0
LINE
  8
_0-7_
  6
CONTINUOUS
 62
    7
 10
28228.774733550337
 20
8127.1591300856698
 11
31263.783656701649
 21
2057.1809212860498
  0
LINE
  8
_0-7_
  6
CONTINUOUS
 62
    7
 10
12706.06957883681
 20
7977.1708186715841
 11
9671.0656103733745
 21
1907.1827004962074
  0
LINE
  8
_0-7_
  6
CONTINUOUS
 62
    7
 10
12613.357459281442
 20
8127.1789488371896
 11
9578.3435814422537
 21
2057.1908306618124
  0
LINE
  8
_0-7_
  6
CONTINUOUS
 62
    7
 10
28136.067568682825
 20
7977.1509999200761
 11
31171.071537146268
 21
1907.1827004962074
  0
LINE
  8
_0-7_
  6
CONTINUOUS
 62
    7
 10
25296.065250996503
 20
4621.7570945750057
 11
25451.275803432996
 21
4000.8455191987054
  0
LINE
  8
_0-7_
  6
CONTINUOUS
 62
    7
 10
15021.068214382943
 20
18907.182547319171
 11
25821.06397844883
 21
18907.182547319171
  0
LINE
  8
_0-7_
  6
CONTINUOUS
 62
    7
 10
25031.068724580294
 20
25717.133481180633
 11
27961.072947553271
 21
25717.133481180633
  0
LINE
  8
_0-7_
  6
CONTINUOUS
 62
    7
 10
12706.089397588335
 20
7977.1708186715841
 11
28136.067568682825
 21
7977.1708186715841
  0
LINE
  8
_0-7_
  6
CONTINUOUS
 62
    7
 10
29756.176184160402
 20
4736.9436783406708
 11
25277.13338861828
 21
3617.1743087513646
  0
LINE
  8
_0-7_
  6
CONTINUOUS
 62
    7
 10
29714.96804508697
 20
4819.3896846148136
 11
25266.069570588831
 21
3707.1811687258759
  0
LINE
  8
_0-7_
  6
CONTINUOUS
 62
    7
 10
25296.065250996503
 20
3692.0198238221046
 11
25451.275803432996
 21
3071.1181578215614
  0
LINE
  8
_0-7_
  6
CONTINUOUS
 62
    7
 10
15021.068214382943
 20
15307.175701484084
 11
25821.06397844883
 21
15307.175701484084
  0
LINE
  8
_0-7_
  6
CONTINUOUS
 62
    7
 10
12613.377278032954
 20
8127.1789488371896
 11
28228.749960110952
 21
8127.1789488371896
  0
LINE
  8
_0-7_
  6
CONTINUOUS
 62
    7
 10
25296.065250996503
 20
1832.4858260617872
 11
25451.275803432996
 21
1211.6039788127523
  0
LINE
  8
_0-7_
  6
CONTINUOUS
 62
    7
 10
25296.065250996503
 20
2762.26273431769
 11
25451.275803432996
 21
2141.3610683171441
  0
LINE
  8
_0-7_
  6
CONTINUOUS
 62
    7
 10
29923.644634404739
 20
2989.4054453532335
 11
25296.065250996503
 21
1832.4858260617872
  0
LINE
  8
_0-7_
  6
CONTINUOUS
 62
    7
 10
27866.953696640804
 20
6194.2561142419835
 11
25296.065250996503
 21
5551.5340028309165
  0
LINE
  8
_0-7_
  6
CONTINUOUS
 62
    7
 10
25296.065250996503
 20
5551.5340028309165
 11
25451.275803432996
 21
4930.6422462061191
  0
LINE
  8
_0-7_
  6
CONTINUOUS
 62
    7
 10
25296.065250996503
 20
6481.3208204625707
 11
25451.275803432996
 21
5860.3993357105364
  0
LINE
  8
_0-7_
  6
CONTINUOUS
 62
    7
 10
26838.603273070952
 20
6866.9243591819504
 11
25296.065250996503
 21
6481.3208204625707
  0
LINE
  8
_0-7_
  6
CONTINUOUS
 62
    7
 10
28381.131385769662
 20
5393.0335376440525
 11
25296.065250996503
 21
4621.7570945750057
  0
LINE
  8
_0-7_
  6
CONTINUOUS
 62
    7
 10
29409.471899963751
 20
3790.5883844481563
 11
25296.065250996503
 21
2762.26273431769
  0
LINE
  8
_0-7_
  6
CONTINUOUS
 62
    7
 10
29923.644634404739
 20
2059.6483558488216
 11
25296.065250996503
 21
902.74855530888089
  0
LINE
  8
_0-7_
  6
CONTINUOUS
 62
    7
 10
2404.0942667327217
 20
16917.181708380347
 11
2404.1140854842296
 21
25097.173205876722
  0
LINE
  8
_0-7_
  6
CONTINUOUS
 62
    7
 10
4241.0844346524581
 20
16623.844367307407
 11
4241.0844346524581
 21
22323.856032327636
  0
LINE
  8
_0-7_
  6
CONTINUOUS
 62
    7
 10
4201.070375357398
 20
16623.844367307407
 11
4201.070375357398
 21
22323.856032327636
  0
LINE
  8
_0-7_
  6
CONTINUOUS
 62
    7
 10
2251.0538675863526
 20
16917.181708380347
 11
2251.0538675863526
 21
25097.173205876722
  0
LINE
  8
_0-7_
  6
CONTINUOUS
 62
    7
 10
25821.06397844883
 20
15307.175701484084
 11
25821.06397844883
 21
18907.182547319171
  0
LINE
  8
_0-7_
  6
CONTINUOUS
 62
    7
 10
15021.068214382943
 20
15307.205429611349
 11
15021.068214382943
 21
18907.182547319171
  0
LINE
  8
_0-7_
  6
CONTINUOUS
 62
    7
 10
2596.1082407199628
 20
16917.181708380347
 11
2596.1082407199628
 21
25097.173205876722
  0
LINE
  8
_0-7_
  6
CONTINUOUS
 62
    7
 10
5161.0510609118136
 20
8387.1811498733168
 11
2881.0622499049259
 21
8387.1811498733168
  0
LINE
  8
_0-7_
  6
CONTINUOUS
 62
    7
 10
2881.0622499049259
 20
25717.173118683662
 11
5161.0906984148241
 21
25717.173118683662
  0
LINE
  8
_0-7_
  6
CONTINUOUS
 62
    7
 10
4261.0815549242315
 20
14857.181039114544
 11
5361.0817198841177
 21
14857.181039114544
  0
LINE
  8
_0-7_
  6
CONTINUOUS
 62
    7
 10
4361.0671562831157
 20
15107.204498766281
 11
5361.0817198841177
 21
15107.204498766281
  0
LINE
  8
_0-7_
  6
CONTINUOUS
 62
    7
 10
4361.0671562831157
 20
14357.203485441312
 11
5361.0817198841177
 21
14357.203485441312
  0
LINE
  8
_0-7_
  6
CONTINUOUS
 62
    7
 10
4361.0671562831157
 20
14107.180025789568
 11
5361.0817198841177
 21
14107.180025789568
  0
LINE
  8
_0-7_
  6
CONTINUOUS
 62
    7
 10
4361.0671562831157
 20
13857.196203640825
 11
5361.0619011325979
 21
13857.196203640825
  0
LINE
  8
_0-7_
  6
CONTINUOUS
 62
    7
 10
4361.0671562831157
 20
13607.172743989071
 11
5361.0619011325979
 21
13607.172743989071
  0
LINE
  8
_0-7_
  6
CONTINUOUS
 62
    7
 10
4361.0671562831157
 20
14607.207126341558
 11
5361.0817198841177
 21
14607.207126341558
  0
LINE
  8
_0-7_
  6
CONTINUOUS
 62
    7
 10
3336.0611470302901
 20
7147.1813242594807
 11
5976.0773979352161
 21
7147.1813242594807
  0
LINE
  8
_0-7_
  6
CONTINUOUS
 62
    7
 10
4361.0671562831157
 20
13357.179012464564
 11
5361.0619011325979
 21
13357.179012464564
  0
LINE
  8
_0-7_
  6
CONTINUOUS
 62
    7
 10
4361.0671562831157
 20
15357.188320915025
 11
5361.0817198841177
 21
15357.188320915025
  0
LINE
  8
_0-7_
  6
CONTINUOUS
 62
    7
 10
4361.0671562831157
 20
15607.201871191035
 11
5361.0817198841177
 21
15607.201871191035
  0
LINE
  8
_0-7_
  6
CONTINUOUS
 62
    7
 10
1838.0806330341556
 20
26432.174216845163
 11
8151.0664634516333
 21
26432.174216845163
  0
LINE
  8
_0-7_
  6
CONTINUOUS
 62
    7
 10
8151.0664634516333
 20
26432.174216845163
 11
8151.0664634516333
 21
26592.141269643623
  0
LINE
  8
_0-7_
  6
CONTINUOUS
 62
    7
 10
8151.0664634516333
 20
26592.141269643623
 11
8336.0745087807154
 21
26592.141269643623
  0
LINE
  8
_0-7_
  6
CONTINUOUS
 62
    7
 10
8151.0664634516333
 20
27492.140503758451
 11
8336.0745087807154
 21
27492.140503758451
  0
LINE
  8
_0-7_
  6
CONTINUOUS
 62
    7
 10
8151.0664634516333
 20
27492.140503758451
 11
8151.0664634516333
 21
27532.134744302027
  0
LINE
  8
_0-7_
  6
CONTINUOUS
 62
    7
 10
8151.0664634516333
 20
26592.141269643623
 11
8151.0664634516333
 21
27492.140503758451
  0
LINE
  8
_0-7_
  6
CONTINUOUS
 62
    7
 10
8961.0984750949719
 20
28022.163284718124
 11
8961.0984750949719
 21
28147.179969231867
  0
LINE
  8
_0-7_
  6
CONTINUOUS
 62
    7
 10
8336.0745087807154
 20
27492.140503758451
 11
8336.0745087807154
 21
28022.163284718124
  0
LINE
  8
_0-7_
  6
CONTINUOUS
 62
    7
 10
6186.0570701646392
 20
2482.1841380037485
 11
6546.0845100626956
 21
2482.1841380037485
  0
LINE
  8
_0-7_
  6
CONTINUOUS
 62
    7
 10
6546.0547819354305
 20
1112.173302496086
 11
6546.0845100626956
 21
2482.1841380037485
  0
LINE
  8
_0-7_
  6
CONTINUOUS
 62
    7
 10
6246.0682497314901
 20
1112.173302496086
 11
6546.0547819354305
 21
1112.173302496086
  0
LINE
  8
_0-7_
  6
CONTINUOUS
 62
    7
 10
6246.0682497314901
 20
1112.173302496086
 11
6246.0682497314901
 21
1157.2213246742308
  0
LINE
  8
_0-7_
  6
CONTINUOUS
 62
    7
 10
6246.0682497314901
 20
1157.2213246742308
 11
5996.0546994554815
 21
1157.2213246742308
  0
LINE
  8
_0-7_
  6
CONTINUOUS
 62
    7
 10
3221.0727507796891
 20
3774.2874613326562
 11
3221.0727507796891
 21
6074.6895863929803
  0
LINE
  8
_0-7_
  6
CONTINUOUS
 62
    7
 10
3336.0611470302901
 20
6074.6895863929803
 11
3221.0727507796891
 21
6074.6895863929803
  0
LINE
  8
_0-7_
  6
CONTINUOUS
 62
    7
 10
3336.0611470302901
 20
3347.1933663308477
 11
3336.0611470302901
 21
6074.6895863929803
  0
LINE
  8
_0-7_
  6
CONTINUOUS
 62
    7
 10
3221.0727507796891
 20
6924.6960198283777
 11
3221.0727507796891
 21
7147.1813242594807
  0
LINE
  8
_0-7_
  6
CONTINUOUS
 62
    7
 10
3336.0611470302901
 20
6924.6960198283777
 11
3221.0727507796891
 21
6924.6960198283777
  0
LINE
  8
_0-7_
  6
CONTINUOUS
 62
    7
 10
3336.0611470302901
 20
6924.6960198283777
 11
3336.0611470302901
 21
7147.1813242594807
  0
LINE
  8
_0-7_
  6
CONTINUOUS
 62
    7
 10
3221.0727507796891
 20
6924.6960198283777
 11
2371.0663173442926
 21
6924.6960198283777
  0
LINE
  8
_0-7_
  6
CONTINUOUS
 62
    7
 10
3221.0727507796891
 20
6074.6895863929803
 11
3221.0727507796891
 21
6924.6960198283777
  0
LINE
  8
_0-7_
  6
CONTINUOUS
 62
    7
 10
6216.0626599480674
 20
5842.1759936987373
 11
6216.0626599480674
 21
5977.1813289726087
  0
LINE
  8
_0-7_
  6
CONTINUOUS
 62
    7
 10
6436.0607110648916
 20
5977.1813289726087
 11
6216.0626599480674
 21
5977.1813289726087
  0
LINE
  8
_0-7_
  6
CONTINUOUS
 62
    7
 10
6436.0607110648916
 20
5622.1878519576566
 11
6436.0607110648916
 21
5977.1813289726087
  0
LINE
  8
_0-7_
  6
CONTINUOUS
 62
    7
 10
6436.0607110648916
 20
6827.1877624080043
 11
6436.0607110648916
 21
8387.1811498733168
  0
LINE
  8
_0-7_
  6
CONTINUOUS
 62
    7
 10
6436.0607110648916
 20
6827.1877624080043
 11
6216.0626599480674
 21
6827.1877624080043
  0
LINE
  8
_0-7_
  6
CONTINUOUS
 62
    7
 10
6216.0626599480674
 20
6827.1877624080043
 11
6216.0626599480674
 21
7147.1813242594807
  0
LINE
  8
_0-7_
  6
CONTINUOUS
 62
    7
 10
6216.0626599480674
 20
5977.1813289726087
 11
5366.0562265126718
 21
5977.1813289726087
  0
LINE
  8
_0-7_
  6
CONTINUOUS
 62
    7
 10
6216.0626599480674
 20
5977.1813289726087
 11
6216.0626599480674
 21
6827.1877624080043
  0
LINE
  8
_0-7_
  6
CONTINUOUS
 62
    7
 10
5996.074518206984
 20
5842.1759936987373
 11
6216.0626599480674
 21
5842.1759936987373
  0
LINE
  8
_0-7_
  6
CONTINUOUS
 62
    7
 10
4791.0448796293849
 20
5842.1958124502398
 11
5976.0773979352161
 21
5842.1759936987373
  0
LINE
  8
_0-7_
  6
CONTINUOUS
 62
    7
 10
31716.06738487041
 20
26404.636061624511
 11
31716.06738487041
 21
26279.639195862262
  0
LINE
  8
_0-7_
  6
CONTINUOUS
 62
    7
 10
28926.047958487743
 20
26404.636061624511
 11
28926.047958487743
 21
26279.639195862262
  0
LINE
  8
_0-7_
  6
CONTINUOUS
 62
    7
 10
28926.067777239244
 20
24697.141616059379
 11
28581.06790567232
 21
24697.141616059379
  0
LINE
  8
_0-7_
  6
CONTINUOUS
 62
    7
 10
28926.067777239244
 20
24697.141616059379
 11
28926.067777239244
 21
24897.142546904418
  0
LINE
  8
_0-7_
  6
CONTINUOUS
 62
    7
 10
28926.067777239244
 20
24897.142546904418
 11
28781.063881829482
 21
24897.142546904418
  0
LINE
  8
_0-7_
  6
CONTINUOUS
 62
    7
 10
31861.05146152867
 20
24897.132637528644
 11
31716.06738487041
 21
24897.132637528644
  0
LINE
  8
_0-7_
  6
CONTINUOUS
 62
    7
 10
31716.06738487041
 20
24697.141616059379
 11
31716.06738487041
 21
24897.132637528644
  0
LINE
  8
_0-7_
  6
CONTINUOUS
 62
    7
 10
32681.072123932153
 20
24697.141616059379
 11
31716.06738487041
 21
24697.141616059379
  0
LINE
  8
_0-7_
  6
CONTINUOUS
 62
    7
 10
28926.067777239244
 20
24697.141616059379
 11
31716.06738487041
 21
24697.141616059379
  0
LINE
  8
_0-7_
  6
CONTINUOUS
 62
    7
 10
8336.0745087807154
 20
26404.655880376016
 11
8336.0745087807154
 21
26592.141269643623
  0
LINE
  8
_0-7_
  6
CONTINUOUS
 62
    7
 10
9041.0770468063255
 20
24697.16143481087
 11
8161.0749329632708
 21
24697.16143481087
  0
LINE
  8
_0-7_
  6
CONTINUOUS
 62
    7
 10
10241.062813125101
 20
24697.16143481087
 11
10501.074923537002
 21
24697.16143481087
  0
LINE
  8
_0-7_
  6
CONTINUOUS
 62
    7
 10
10241.062813125101
 20
24697.16143481087
 11
10241.062813125101
 21
24877.165245384152
  0
LINE
  8
_0-7_
  6
CONTINUOUS
 62
    7
 10
10241.062813125101
 20
24877.165245384152
 11
10301.08390206771
 21
24877.165245384152
  0
LINE
  8
_0-7_
  6
CONTINUOUS
 62
    7
 10
9041.0770468063255
 20
24697.16143481087
 11
9041.0770468063255
 21
24877.165245384152
  0
LINE
  8
_0-7_
  6
CONTINUOUS
 62
    7
 10
9041.0770468063255
 20
24877.165245384152
 11
8981.0757766152382
 21
24877.165245384152
  0
LINE
  8
_0-7_
  6
CONTINUOUS
 62
    7
 10
10241.062813125101
 20
24697.16143481087
 11
9041.0770468063255
 21
24697.16143481087
  0
LINE
  8
_0-7_
  6
CONTINUOUS
 62
    7
 10
10241.062813125101
 20
26404.685608503281
 11
10241.062813125101
 21
26279.678833365265
  0
LINE
  8
_0-7_
  6
CONTINUOUS
 62
    7
 10
10241.062813125101
 20
26404.685608503281
 11
28926.047958487743
 21
26404.636061624511
  0
LINE
  8
_0-7_
  6
CONTINUOUS
 62
    7
 10
9041.0770468063255
 20
26404.655880376016
 11
9041.0770468063255
 21
26279.668923989527
  0
LINE
  8
_0-7_
  6
CONTINUOUS
 62
    7
 10
8336.0745087807154
 20
26404.655880376016
 11
9041.0770468063255
 21
26404.655880376016
  0
LINE
  8
_0-7_
  6
CONTINUOUS
 62
    7
 10
8961.0984750949719
 20
28147.179969231867
 11
9791.0780601313199
 21
28147.179969231867
  0
LINE
  8
_0-7_
  6
CONTINUOUS
 62
    7
 10
10391.090762042209
 20
28147.179969231867
 11
11131.093215231321
 21
28147.179969231867
  0
LINE
  8
_0-7_
  6
CONTINUOUS
 62
    7
 10
10241.062813125101
 20
26404.685608503281
 11
9041.0770468063255
 21
26404.685608503281
  0
LINE
  8
_0-7_
  6
CONTINUOUS
 62
    7
 10
31716.06738487041
 20
26404.636061624511
 11
28926.047958487743
 21
26404.636061624511
  0
LINE
  8
_0-7_
  6
CONTINUOUS
 62
    7
 10
8981.0757766152382
 20
26279.668923989527
 11
8981.0757766152382
 21
24877.165245384152
  0
LINE
  8
_0-7_
  6
CONTINUOUS
 62
    7
 10
10301.08390206771
 20
24877.165245384152
 11
10301.08390206771
 21
26279.668923989527
  0
LINE
  8
_0-7_
  6
CONTINUOUS
 62
    7
 10
9791.0780601313199
 20
28147.179969231867
 11
10391.090762042209
 21
28147.179969231867
  0
LINE
  8
_0-7_
  6
CONTINUOUS
 62
    7
 10
2596.0686032169519
 20
9007.1909720560106
 11
2881.0622499049259
 21
9007.1909720560106
  0
LINE
  8
_0-7_
  6
CONTINUOUS
 62
    7
 10
2596.0686032169519
 20
9007.1909720560106
 11
2596.0686032169519
 21
9532.6653495445352
  0
LINE
  8
_0-7_
  6
CONTINUOUS
 62
    7
 10
40346.063454112081
 20
26622.156768802789
 11
40221.071543037716
 21
26622.156768802789
  0
LINE
  8
_0-7_
  6
CONTINUOUS
 62
    7
 10
40346.063454112081
 20
28857.147104510306
 11
40346.063454112081
 21
27822.162353873078
  0
LINE
  8
_0-7_
  6
CONTINUOUS
 62
    7
 10
40346.063454112081
 20
27822.162353873078
 11
40221.071543037716
 21
27822.162353873078
  0
LINE
  8
_0-7_
  6
CONTINUOUS
 62
    7
 10
8948.0280084753121
 20
3651.5400238665934
 11
8864.3235114804083
 21
3326.423314750255
  0
LINE
  8
_0-7_
  6
CONTINUOUS
 62
    7
 10
9146.6218079632635
 20
3600.5860137389986
 11
8948.0280084753121
 21
3651.5400238665934
  0
LINE
  8
_0-7_
  6
CONTINUOUS
 62
    7
 10
9146.6218079632635
 20
3600.5860137389986
 11
9071.0628178382412
 21
3307.1793070357812
  0
LINE
  8
_0-7_
  6
CONTINUOUS
 62
    7
 10
9371.10880629671
 20
4472.0066081790009
 11
9172.5744630632652
 21
4523.1290776944124
  0
LINE
  8
_0-7_
  6
CONTINUOUS
 62
    7
 10
9921.0791606493821
 20
6607.1798019154248
 11
9371.10880629671
 21
4472.0066081790009
  0
LINE
  8
_0-7_
  6
CONTINUOUS
 62
    7
 10
9146.6218079632635
 20
3600.5860137389986
 11
9371.10880629671
 21
4472.0066081790009
  0
LINE
  8
_0-7_
  6
CONTINUOUS
 62
    7
 10
9146.6218079632635
 20
3600.5860137389986
 11
10018.042402403278
 21
3376.0990154055634
  0
LINE
  8
_0-7_
  6
CONTINUOUS
 62
    7
 10
9200.5288120656005
 20
4631.6664703291025
 11
9172.5744630632652
 21
4523.1290776944124
  0
LINE
  8
_0-7_
  6
CONTINUOUS
 62
    7
 10
8151.0664634516269
 20
4901.7465065071601
 11
9200.5288120656005
 21
4631.6664703291025
  0
LINE
  8
_0-7_
  6
CONTINUOUS
 62
    7
 10
9833.00462894691
 20
7173.4213512563428
 11
10121.446738397336
 21
6740.7680964564806
  0
LINE
  8
_0-7_
  6
CONTINUOUS
 62
    7
 10
10332.219160687087
 20
7506.2574640851207
 11
10620.671179513239
 21
7073.5843905337678
  0
LINE
  8
_0-7_
  6
CONTINUOUS
 62
    7
 10
7761.0730712731874
 20
2017.176771366735
 11
8951.6251118740437
 21
2017.176771366735
  0
LINE
  8
_0-7_
  6
CONTINUOUS
 62
    7
 10
8864.3235114804083
 20
3326.423314750255
 11
8951.6251118740437
 21
2017.176771366735
  0
LINE
  8
_0-7_
  6
CONTINUOUS
 62
    7
 10
6186.0570701646392
 20
2482.1841380037485
 11
6186.0768889161308
 21
4587.183282568938
  0
LINE
  8
_0-7_
  6
CONTINUOUS
 62
    7
 10
6186.0768889161308
 20
5187.1860751040831
 11
6186.0768889161308
 21
5622.1878519576566
  0
LINE
  8
_0-7_
  6
CONTINUOUS
 62
    7
 10
6186.0768889161308
 20
5187.1860751040831
 11
6186.0768889161308
 21
4587.183282568938
  0
LINE
  8
_0-7_
  6
CONTINUOUS
 62
    7
 10
31755.808936332239
 20
26279.639195862262
 11
31851.033082641271
 21
25869.192852127336
  0
LINE
  8
_0-7_
  6
CONTINUOUS
 62
    7
 10
28886.276678898662
 20
26279.639195862262
 11
28791.067396653226
 21
25869.192852127336
  0
LINE
  8
_0-7_
  6
CONTINUOUS
 62
    7
 10
31861.05146152867
 20
24897.132637528644
 11
31861.05146152867
 21
25957.128652569248
  0
LINE
  8
_0-7_
  6
CONTINUOUS
 62
    7
 10
40221.071543037716
 20
27917.18335797917
 11
40221.071543037716
 21
27822.162353873078
  0
LINE
  8
_0-7_
  6
CONTINUOUS
 62
    7
 10
40221.071543037716
 20
26622.156768802789
 11
40221.071543037716
 21
26404.626152248751
  0
LINE
  8
_0-7_
  6
CONTINUOUS
 62
    7
 10
32681.047350492757
 20
6947.1704840386792
 11
32691.065729380148
 21
6947.1704840386792
  0
LINE
  8
_0-7_
  6
CONTINUOUS
 62
    7
 10
30496.034951401066
 20
7575.6032756123431
 11
30179.856499214929
 21
7101.3207332694892
  0
LINE
  8
_0-7_
  6
CONTINUOUS
 62
    7
 10
31078.463466036315
 20
7187.2944773120989
 11
30762.285013850167
 21
6713.0416630965046
  0
LINE
  8
_0-7_
  6
CONTINUOUS
 62
    7
 10
31894.109139044361
 20
3651.4508394848094
 11
31977.823545415016
 21
3326.4332241260121
  0
LINE
  8
_0-7_
  6
CONTINUOUS
 62
    7
 10
31695.604523938174
 20
3600.1896387088349
 11
31894.109139044361
 21
3651.4508394848094
  0
LINE
  8
_0-7_
  6
CONTINUOUS
 62
    7
 10
31695.604523938174
 20
3600.1896387088349
 11
31771.064420305672
 21
3307.1793070357812
  0
LINE
  8
_0-7_
  6
CONTINUOUS
 62
    7
 10
31614.164319303086
 20
4738.1724409341841
 11
31669.646914150303
 21
4523.0002558096175
  0
LINE
  8
_0-7_
  6
CONTINUOUS
 62
    7
 10
31471.092752165361
 20
4471.7687831608973
 11
31669.646914150303
 21
4523.0002558096175
  0
LINE
  8
_0-7_
  6
CONTINUOUS
 62
    7
 10
30921.077805621782
 20
6607.1798019154248
 11
31471.092752165361
 21
4471.7687831608973
  0
LINE
  8
_0-7_
  6
CONTINUOUS
 62
    7
 10
31471.092752165361
 20
4471.7687831608973
 11
31695.604523938174
 21
3600.1896387088349
  0
LINE
  8
_0-7_
  6
CONTINUOUS
 62
    7
 10
31695.604523938174
 20
3600.1896387088349
 11
30824.025379486101
 21
3375.6729122481515
  0
LINE
  8
_0-7_
  6
CONTINUOUS
 62
    7
 10
33081.049212182835
 20
2017.1569526152438
 11
31890.526899709242
 21
2017.1569526152438
  0
LINE
  8
_0-7_
  6
CONTINUOUS
 62
    7
 10
31977.823545415016
 20
3326.4332241260121
 11
31890.526899709242
 21
2017.1569526152438
  0
LINE
  8
_0-7_
  6
CONTINUOUS
 62
    7
 10
33081.049212182835
 20
2017.1569526152438
 11
33081.049212182835
 21
1267.1955767932502
  0
LINE
  8
_0-7_
  6
CONTINUOUS
 62
    7
 10
34224.046158539786
 20
997.16508749397689
 11
34336.061742064157
 21
997.16508749397689
  0
LINE
  8
_0-7_
  6
CONTINUOUS
 62
    7
 10
34224.046158539786
 20
997.16508749397689
 11
34224.046158539786
 21
1267.1955767932502
  0
LINE
  8
_0-7_
  6
CONTINUOUS
 62
    7
 10
34224.046158539786
 20
1267.1955767932502
 11
34406.071481766892
 21
1267.1955767932502
  0
LINE
  8
_0-7_
  6
CONTINUOUS
 62
    7
 10
33081.049212182835
 20
1267.1955767932502
 11
33424.062253911106
 21
1267.1955767932502
  0
LINE
  8
_0-7_
  6
CONTINUOUS
 62
    7
 10
32078.037062416238
 20
997.16508749397689
 11
33424.062253911106
 21
997.16508749397689
  0
LINE
  8
_0-7_
  6
CONTINUOUS
 62
    7
 10
33424.062253911106
 20
997.16508749397689
 11
33424.062253911106
 21
1267.1955767932502
  0
LINE
  8
_0-7_
  6
CONTINUOUS
 62
    7
 10
34224.046158539786
 20
997.16508749397689
 11
33424.062253911106
 21
997.16508749397689
  0
ARC
  8
_0-7_
  6
CONTINUOUS
 62
    7
 10
2666.1080710469432
 20
11674.92374694515
 40
915.00202900654392
 50
180
 51
270
  0
ARC
  8
_0-7_
  6
CONTINUOUS
 62
    7
 10
2666.0882522954407
 20
9844.9295983078081
 40
915.00202900654392
 50
90
 51
180
  0
ARC
  8
_0-7_
  6
CONTINUOUS
 62
    7
 10
10256.075517392575
 20
26422.17565670927
 40
1229.9952269521018
 50
2.8545227050988781
 51
180
  0
ARC
  8
_0-7_
  6
CONTINUOUS
 62
    7
 10
10256.075517392575
 20
24692.157200055051
 40
1229.9952269521018
 50
180
 51
356.9870605475769
  0
ARC
  8
_0-7_
  6
CONTINUOUS
 62
    7
 10
33196.072291248594
 20
2017.1569526152438
 40
16.999999817795469
 50
180
 51
0
  0
ARC
  8
_0-7_
  6
CONTINUOUS
 62
    7
 10
33196.072291248594
 20
2782.1607608319341
 40
16.999999817795469
 50
0
 51
180
  0
ARC
  8
_0-7_
  6
CONTINUOUS
 62
    7
 10
3221.0727507796891
 20
6924.6960198283777
 40
850.00643343539559
 50
180
 51
270
  0
ARC
  8
_0-7_
  6
CONTINUOUS
 62
    7
 10
6216.0626599480674
 20
5977.1813289726087
 40
850.00643343539559
 50
90
 51
180
  0
ARC
  8
_0-7_
  6
CONTINUOUS
 62
    7
 10
9146.6218079632635
 20
3600.5860137389986
 40
899.87126381701102
 50
345.55410766594633
 51
75.554107665841186
  0
ARC
  8
_0-7_
  6
CONTINUOUS
 62
    7
 10
31695.604523938174
 20
3600.1896387088349
 40
900.03097508405346
 50
104.44490051321083
 51
194.44520568876441
  0
LINE
  8
_0-7_
  6
CONTINUOUS
 62
    7
 10
28381.131385769662
 20
2603.7523597550771
 11
28536.34193820618
 21
1982.8407843787658
  0
LINE
  8
_0-7_
  6
CONTINUOUS
 62
    7
 10
2661.0840175396051
 20
9752.6435819098569
 11
737.59490866232226
 21
9752.6435819098569
  0
LINE
  8
_0-7_
  6
CONTINUOUS
 62
    7
 10
8981.0757766152382
 20
26279.668923989527
 11
9041.0770468063255
 21
26279.668923989527
  0
LINE
  8
_0-7_
  6
CONTINUOUS
 62
    7
 10
8151.0664634516269
 20
9007.1909720560088
 11
8981.0757766152328
 21
9007.1909720560088
  0
LINE
  8
_0-7_
  6
CONTINUOUS
 62
    7
 10
5781.0509737187312
 20
9007.1711533044926
 11
5781.0509737187312
 21
9007.1909720560106
  0
LINE
  8
_0-7_
  6
CONTINUOUS
 62
    7
 10
8361.0659544325571
 20
9007.171153304489
 11
8361.0659544325571
 21
9007.1909720560088
  0
LINE
  8
_0-7_
  6
CONTINUOUS
 62
    7
 10
31861.046506840797
 20
9007.171153304489
 11
32681.047350492757
 21
9007.171153304489
  0
LINE
  8
_0-7_
  6
CONTINUOUS
 62
    7
 10
34861.040650764982
 20
9007.171153304489
 11
35681.056358480585
 21
9007.171153304489
  0
SOLID
  8
_0-2_
  6
CONTINUOUS
 62
    7
 10
10261.069842772643
 20
9007.1909720560088
 11
10261.069842772643
 21
8387.1811498733168
 12
11421.06136854784
 22
9007.1909720560088
 13
11214.390290058141
 23
8387.1811498733168
  0
SOLID
  8
_0-2_
  6
CONTINUOUS
 62
    7
 10
10261.069842772643
 20
8387.1811498733168
 11
10332.219160687087
 21
7506.2574640851207
 12
11214.390290058141
 22
8387.1811498733168
 13
10821.058576012695
 23
7207.1925038263261
  0
SOLID
  8
_0-2_
  6
CONTINUOUS
 62
    7
 10
10332.219160687087
 20
7506.2574640851207
 11
10620.670333826179
 21
7073.5856590498342
 12
10821.058576012695
 22
7207.1925038263261
 13
10821.058576012695
 23
7207.1925038263261
  0
SOLID
  8
_0-2_
  6
CONTINUOUS
 62
    7
 10
8981.0757766152328
 20
8387.1811498733168
 11
10261.069842772643
 21
8387.1811498733168
 12
9833.00462894691
 22
7173.4213512563428
 13
10332.219160687087
 23
7506.2574640851207
  0
SOLID
  8
_0-2_
  6
CONTINUOUS
 62
    7
 10
8151.0664634516269
 20
9007.1909720560088
 11
8151.0664634516269
 21
8387.1811498733168
 12
8981.0757766152328
 22
9007.1909720560088
 13
8981.0757766152328
 23
8387.1811498733168
  0
SOLID
  8
_0-2_
  6
CONTINUOUS
 62
    7
 10
8151.0664634516269
 20
8387.1811498733168
 11
8981.0757766152328
 21
8387.1811498733168
 12
8151.0664634516269
 22
6607.1599831639159
 13
9921.0791606493821
 23
6607.1798019154248
  0
SOLID
  8
_0-2_
  6
CONTINUOUS
 62
    7
 10
8981.0757766152328
 20
8387.1811498733168
 11
9833.00462894691
 21
7173.4213512563428
 12
9921.0791606493821
 22
6607.1798019154248
 13
10121.446738397336
 23
6740.7680964564806
  0
SOLID
  8
_0-2_
  6
CONTINUOUS
 62
    7
 10
8151.0664634516269
 20
6607.1599831639159
 11
9921.0395231463717
 21
6607.1599831639159
 12
8151.0664634516269
 22
4901.7465065071601
 13
9200.5288120656005
 23
4631.6664703291025
  0
SOLID
  8
_0-2_
  6
CONTINUOUS
 62
    7
 10
9921.0395231463717
 20
6607.1599831639159
 11
9412.2334285147935
 21
4631.6664703291025
 12
9200.5288120656005
 22
4631.6664703291025
 13
9200.5288120656005
 23
4631.6664703291025
  0
SOLID
  8
_0-2_
  6
CONTINUOUS
 62
    7
 10
9200.5288120656005
 20
4631.6664703291025
 11
9412.2334285147935
 21
4631.6664703291025
 12
9172.5744630632652
 22
4523.1290776944124
 13
9371.1088099845346
 23
4472.0066224964029
  0
SOLID
  8
_0-2_
  6
CONTINUOUS
 62
    7
 10
8864.3235114804083
 20
3326.423314750255
 11
8951.6251118740437
 21
2017.176771366735
 12
9154.3907585544766
 22
2057.1908306618124
 13
9154.3907585544766
 23
2057.1908306618124
  0
SOLID
  8
_0-2_
  6
CONTINUOUS
 62
    7
 10
8864.3235114804083
 20
3326.423314750255
 11
9154.3907585544766
 21
2057.1908306618124
 12
9071.0628178382412
 22
3307.1793070357812
 13
9071.0628178382412
 23
3307.1793070357812
  0
SOLID
  8
_0-2_
  6
CONTINUOUS
 62
    7
 10
8864.3235114804083
 20
3326.423314750255
 11
9071.0628178382412
 21
3307.1793070357812
 12
9146.6218079632635
 22
3600.5860137389986
 13
9146.6218079632635
 23
3600.5860137389986
  0
SOLID
  8
_0-2_
  6
CONTINUOUS
 62
    7
 10
8864.3235114804083
 20
3326.423314750255
 11
9146.6218079632635
 21
3600.5860137389986
 12
8948.0280084753121
 22
3651.5400238665934
 13
8948.0280084753121
 23
3651.5400238665934
  0
SOLID
  8
_0-2_
  6
CONTINUOUS
 62
    7
 10
6246.0682497314901
 20
1157.2213246742308
 11
6246.0682497314901
 21
1112.173302496086
 12
6546.0557594410829
 22
1157.2213246742308
 13
6546.0547819354305
 23
1112.173302496086
  0
SOLID
  8
_0-2_
  6
CONTINUOUS
 62
    7
 10
6246.0682497314901
 20
1157.2213246742308
 11
6546.0557594410829
 21
1157.2213246742308
 12
6546.0719246236576
 22
1902.188375116134
 13
6546.0719246236576
 23
1902.188375116134
  0
SOLID
  8
_0-2_
  6
CONTINUOUS
 62
    7
 10
6246.0682497314901
 20
1157.2213246742308
 11
6546.0719246236576
 21
1902.188375116134
 12
4791.0448796293849
 22
1902.188375116134
 13
4791.0448796293849
 23
1902.188375116134
  0
SOLID
  8
_0-2_
  6
CONTINUOUS
 62
    7
 10
6246.0682497314901
 20
1157.2213246742308
 11
4791.0448796293849
 21
1902.188375116134
 12
3279.5777052318953
 22
1902.188375116134
 13
3279.5777052318953
 23
1902.188375116134
  0
SOLID
  8
_0-2_
  6
CONTINUOUS
 62
    7
 10
6246.0682497314901
 20
1157.2213246742308
 11
3279.5777052318953
 21
1902.188375116134
 12
3279.5777052318953
 22
1157.1915965469656
 13
3279.5777052318953
 23
1157.1915965469656
  0
SOLID
  8
_0-2_
  6
CONTINUOUS
 62
    7
 10
4791.0448796293849
 20
2482.1841380037485
 11
4791.0448796293849
 21
1902.188375116134
 12
6186.0570701646392
 22
2482.1841380037485
 13
6546.0845100626956
 23
2482.1841380037485
  0
SOLID
  8
_0-2_
  6
CONTINUOUS
 62
    7
 10
4791.0448796293849
 20
1902.188375116134
 11
6546.0719246236576
 21
1902.188375116134
 12
6546.0845100626956
 22
2482.1841380037485
 13
6546.0845100626956
 23
2482.1841380037485
  0
SOLID
  8
_0-2_
  6
CONTINUOUS
 62
    7
 10
4791.0448796293849
 20
5842.1958124502398
 11
4791.0448796293849
 21
2482.1841380037485
 12
6186.0570701646392
 22
2482.1841380037485
 13
6186.0570701646392
 23
2482.1841380037485
  0
SOLID
  8
_0-2_
  6
CONTINUOUS
 62
    7
 10
4791.0448796293849
 20
5842.1958124502398
 11
6186.0570701646392
 21
2482.1841380037485
 12
6186.0768889161308
 22
5622.1878519576566
 13
6186.0768889161308
 23
5622.1878519576566
  0
SOLID
  8
_0-2_
  6
CONTINUOUS
 62
    7
 10
4791.0448796293849
 20
5842.1958124502398
 11
6186.0768889161308
 21
5622.1878519576566
 12
6216.0626599480674
 22
5842.1759936987373
 13
6216.0626599480674
 23
5842.1759936987373
  0
SOLID
  8
_0-2_
  6
CONTINUOUS
 62
    7
 10
6216.0626599480674
 20
5842.1759936987373
 11
6436.0607110648916
 21
5842.1759936987373
 12
6186.0768889161308
 22
5622.1878519576566
 13
6436.0607110648916
 23
5622.1878519576566
  0
SOLID
  8
_0-2_
  6
CONTINUOUS
 62
    7
 10
6216.0626599480674
 20
5977.1813289726087
 11
6436.0607110648916
 21
5977.1813289726087
 12
6216.0626599480674
 22
5842.1759936987373
 13
6436.0607110648916
 23
5842.1759936987373
  0
SOLID
  8
_0-2_
  6
CONTINUOUS
 62
    7
 10
6216.0626599480674
 20
7147.1813242594807
 11
6216.0626599480674
 21
6827.1877624080043
 12
6436.0607110648916
 22
7147.1813242594807
 13
6436.0607110648916
 23
6827.1877624080043
  0
SOLID
  8
_0-2_
  6
CONTINUOUS
 62
    7
 10
5981.0618139395273
 20
8387.1811498733168
 11
5981.0618139395273
 21
7147.1813242594807
 12
6436.0607110648916
 22
8387.1811498733168
 13
6436.0607110648916
 23
7147.1813242594807
  0
SOLID
  8
_0-2_
  6
CONTINUOUS
 62
    7
 10
5981.0618139395273
 20
7147.1813242594807
 11
6216.0626599480674
 21
7147.1813242594807
 12
6436.0607110648916
 22
7147.1813242594807
 13
6436.0607110648916
 23
7147.1813242594807
  0
SOLID
  8
_0-2_
  6
CONTINUOUS
 62
    7
 10
5161.060970287559
 20
9007.1909720560106
 11
5981.0618139395273
 21
9007.1909720560106
 12
5161.0510609118136
 22
8387.1811498733168
 13
5981.0618139395273
 23
8387.1811498733168
  0
SOLID
  8
_0-2_
  6
DASHED2
 62
    7
 10
3336.0611470302901
 20
8387.1811498733168
 11
5161.0510609118136
 21
8387.1811498733168
 12
3336.0611470302901
 22
7147.1813242594807
 13
5981.0618139395273
 23
7147.1813242594807
  0
SOLID
  8
_0-2_
  6
DASHED2
 62
    7
 10
5161.0510609118136
 20
8387.1811498733168
 11
5981.0618139395273
 21
8387.1811498733168
 12
5981.0618139395273
 22
7147.1813242594807
 13
5981.0618139395273
 23
7147.1813242594807
  0
SOLID
  8
_0-2_
  6
DASHED2
 62
    7
 10
29421.046050844539
 20
9007.171153304489
 11
29627.741957899666
 21
8387.1514217460517
 12
30581.052440683379
 22
9007.171153304489
 13
30581.052440683379
 23
8387.1514217460517
  0
SOLID
  8
_0-2_
  6
DASHED2
 62
    7
 10
29627.741957899666
 20
8387.1514217460517
 11
30581.052440683379
 21
8387.1514217460517
 12
30021.073616819081
 22
7207.1726850748063
 13
30179.856499214929
 23
7101.3207332694892
  0
SOLID
  8
_0-2_
  6
DASHED2
 62
    7
 10
30581.052440683379
 20
8387.1514217460517
 11
30496.034951401066
 21
7575.6032756123431
 12
30179.856499214929
 22
7101.3207332694892
 13
30179.856499214929
 23
7101.3207332694892
  0
SOLID
  8
_0-2_
  6
DASHED2
 62
    7
 10
30581.052440683379
 20
8387.1514217460517
 11
31861.046506840797
 21
8387.1514217460517
 12
30496.034951401066
 22
7575.6032756123431
 13
31078.463466036315
 23
7187.2944773120989
  0
SOLID
  8
_0-2_
  6
DASHED2
 62
    7
 10
31861.046506840797
 20
9007.171153304489
 11
32681.047350492757
 21
9007.171153304489
 12
31861.046506840797
 22
8387.1514217460517
 13
32681.047350492757
 23
8387.1514217460517
  0
SOLID
  8
_0-2_
  6
DASHED2
 62
    7
 10
31078.463466036315
 20
7187.2944773120989
 11
30762.285013850167
 21
6713.0416630965046
 12
30921.077805621782
 22
6607.1798019154248
 13
30921.077805621782
 23
6607.1798019154248
  0
SOLID
  8
_0-2_
  6
DASHED2
 62
    7
 10
31078.463466036315
 20
7187.2944773120989
 11
30921.077805621782
 21
6607.1798019154248
 12
32691.065729380148
 22
6607.1798019154248
 13
32691.065729380148
 23
6607.1798019154248
  0
SOLID
  8
_0-2_
  6
DASHED2
 62
    7
 10
31078.463466036315
 20
7187.2944773120989
 11
32691.065729380148
 21
6607.1798019154248
 12
32681.047350492757
 22
8387.1514217460517
 13
32681.047350492757
 23
8387.1514217460517
  0
SOLID
  8
_0-2_
  6
DASHED2
 62
    7
 10
31078.463466036315
 20
7187.2944773120989
 11
32681.047350492757
 21
8387.1514217460517
 12
31861.046506840797
 22
8387.1514217460517
 13
31861.046506840797
 23
8387.1514217460517
  0
SOLID
  8
_0-2_
  6
DASHED2
 62
    7
 10
30921.077805621782
 20
6607.1798019154248
 11
32691.065729380148
 21
6607.1798019154248
 12
31402.475520024894
 22
4738.1724409341841
 13
31614.164319303086
 23
4738.1724409341841
  0
SOLID
  8
_0-2_
  6
DASHED2
 62
    7
 10
32691.065729380148
 20
6607.1798019154248
 11
32691.065729380148
 21
5015.3376807764316
 12
31614.164319303086
 22
4738.1724409341841
 13
31614.164319303086
 23
4738.1724409341841
  0
SOLID
  8
_0-2_
  6
DASHED2
 62
    7
 10
31402.475520024894
 20
4738.1724409341841
 11
31614.164319303086
 21
4738.1724409341841
 12
31471.092750031111
 22
4471.7687914470443
 13
31669.646914150303
 23
4523.0002558096175
  0
SOLID
  8
_0-2_
  6
DASHED2
 62
    7
 10
31687.733259030035
 20
2057.1809212860498
 11
31890.526899709242
 21
2017.1569526152438
 12
31977.823545415016
 22
3326.4332241260121
 13
31977.823545415016
 23
3326.4332241260121
  0
SOLID
  8
_0-2_
  6
DASHED2
 62
    7
 10
31687.733259030035
 20
2057.1809212860498
 11
31977.823545415016
 21
3326.4332241260121
 12
31894.109139044361
 22
3651.4508394848094
 13
31894.109139044361
 23
3651.4508394848094
  0
SOLID
  8
_0-2_
  6
DASHED2
 62
    7
 10
31894.109139044361
 20
3651.4508394848094
 11
31695.604523938174
 21
3600.1896387088349
 12
31771.064420305672
 22
3307.1793070357812
 13
31771.064420305672
 23
3307.1793070357812
  0
SOLID
  8
_0-2_
  6
DASHED2
 62
    7
 10
31894.109139044361
 20
3651.4508394848094
 11
31771.064420305672
 21
3307.1793070357812
 12
31687.733259030035
 22
2057.1809212860498
 13
31687.733259030035
 23
2057.1809212860498
  0
SOLID
  8
_0-2_
  6
DASHED2
 62
    7
 10
31677.747828829284
 20
1907.1827004962074
 11
31617.067287451613
 21
997.16508749397689
 12
32078.037062416238
 22
997.16508749397689
 13
32078.037062416238
 23
997.16508749397689
  0
SOLID
  8
_0-2_
  6
DASHED2
 62
    7
 10
31677.747828829284
 20
1907.1827004962074
 11
32078.037062416238
 21
997.16508749397689
 12
33081.049212182835
 22
997.16508749397689
 13
33081.049212182835
 23
997.16508749397689
  0
SOLID
  8
_0-2_
  6
DASHED2
 62
    7
 10
31677.747828829284
 20
1907.1827004962074
 11
33081.049212182835
 21
997.16508749397689
 12
33081.049212182835
 22
1267.1955767932502
 13
33081.049212182835
 23
1267.1955767932502
  0
SOLID
  8
_0-2_
  6
DASHED2
 62
    7
 10
31677.747828829284
 20
1907.1827004962074
 11
33081.049212182835
 21
1267.1955767932502
 12
33081.049212182835
 22
2017.1569526152438
 13
33081.049212182835
 23
2017.1569526152438
  0
SOLID
  8
_0-2_
  6
DASHED2
 62
    7
 10
31677.747828829284
 20
1907.1827004962074
 11
33081.049212182835
 21
2017.1569526152438
 12
31890.526899709242
 22
2017.1569526152438
 13
31890.526899709242
 23
2017.1569526152438
  0
SOLID
  8
_0-2_
  6
DASHED2
 62
    7
 10
31677.747828829284
 20
1907.1827004962074
 11
31890.526899709242
 21
2017.1569526152438
 12
31687.733259030035
 22
2057.1809212860498
 13
31687.733259030035
 23
2057.1809212860498
  0
SOLID
  8
_0-2_
  6
DASHED2
 62
    7
 10
33081.049212182835
 20
1267.1955767932502
 11
33424.062253911106
 21
1267.1955767932502
 12
33081.049212182835
 22
997.16508749397689
 13
33424.062253911106
 23
997.16508749397689
  0
SOLID
  8
_0-2_
  6
DASHED2
 62
    7
 10
2881.0622499049259
 20
26432.174216845163
 11
2881.0622499049259
 21
25717.173118683662
 12
5161.0906984148241
 22
26432.174216845163
 13
5161.0906984148241
 23
25717.173118683662
  0
SOLID
  8
_0-2_
  6
DASHED2
 62
    7
 10
5161.0906984148241
 20
25717.173118683662
 11
5161.060970287559
 21
25047.20022394881
 12
5981.0618139395273
 22
25047.16058644577
 13
5981.0618139395273
 23
25047.16058644577
  0
SOLID
  8
_0-2_
  6
DASHED2
 62
    7
 10
5161.0906984148241
 20
25717.173118683662
 11
5981.0618139395273
 21
25047.16058644577
 12
5981.0618139395273
 22
25717.173118683662
 13
5981.0618139395273
 23
25717.173118683662
  0
SOLID
  8
_0-2_
  6
DASHED2
 62
    7
 10
5161.0906984148241
 20
25717.173118683662
 11
5981.0618139395273
 21
25717.173118683662
 12
5981.0618139395273
 22
26432.174216845163
 13
5981.0618139395273
 23
26432.174216845163
  0
SOLID
  8
_0-2_
  6
DASHED2
 62
    7
 10
5161.0906984148241
 20
25717.173118683662
 11
5981.0618139395273
 21
26432.174216845163
 12
5161.0906984148241
 22
26432.174216845163
 13
5161.0906984148241
 23
26432.174216845163
  0
SOLID
  8
_0-2_
  6
DASHED2
 62
    7
 10
5981.0618139395273
 20
26432.174216845163
 11
5981.0618139395273
 21
25717.173118683662
 12
8151.0664634516333
 22
26432.174216845163
 13
8336.0745087807154
 23
26432.174216845163
  0
SOLID
  8
_0-2_
  6
DASHED2
 62
    7
 10
5981.0618139395273
 20
25717.173118683662
 11
8161.0749329632708
 21
25717.173118683662
 12
8336.0745087807154
 22
26432.174216845163
 13
8336.0745087807154
 23
26404.655880376016
  0
SOLID
  8
_0-2_
  6
DASHED2
 62
    7
 10
8161.0749329632708
 20
25717.173118683662
 11
8336.0745087807154
 21
25717.173118683662
 12
8336.0745087807154
 22
26404.655880376016
 13
8336.0745087807154
 23
26404.655880376016
  0
SOLID
  8
_0-2_
  6
DASHED2
 62
    7
 10
8151.0664634516333
 20
26592.141269643623
 11
8336.0745087807154
 21
26592.141269643623
 12
8151.0664634516333
 22
26432.174216845163
 13
8336.0745087807154
 23
26432.174216845163
  0
SOLID
  8
_0-2_
  6
DASHED2
 62
    7
 10
8161.0749329632708
 20
25717.173118683662
 11
8336.0745087807154
 21
25717.173118683662
 12
8161.0749329632708
 22
24877.165245384152
 13
8336.0745087807154
 23
24877.165245384152
  0
SOLID
  8
_0-2_
  6
DASHED2
 62
    7
 10
8161.0749329632708
 20
24877.165245384152
 11
8161.0749329632708
 21
24697.16143481087
 12
8336.0745087807154
 22
24877.165245384152
 13
8336.0745087807154
 23
24697.16143481087
  0
SOLID
  8
_0-2_
  6
DASHED2
 62
    7
 10
8336.0745087807154
 20
24877.165245384152
 11
8336.0745087807154
 21
24697.16143481087
 12
8981.0757766152382
 22
24877.165245384152
 13
9041.0770468063255
 23
24877.165245384152
  0
SOLID
  8
_0-2_
  6
DASHED2
 62
    7
 10
8336.0745087807154
 20
24697.16143481087
 11
9041.0770468063255
 21
24697.16143481087
 12
9041.0770468063255
 22
24877.165245384152
 13
9041.0770468063255
 23
24877.165245384152
  0
SOLID
  8
_0-2_
  6
DASHED2
 62
    7
 10
8336.0745087807154
 20
25717.173118683662
 11
8981.0757766152382
 21
25717.173118683662
 12
8336.0745087807154
 22
24877.165245384152
 13
8981.0757766152382
 23
24877.165245384152
  0
SOLID
  8
_0-2_
  6
DASHED2
 62
    7
 10
8336.0745087807154
 20
26404.655880376016
 11
8981.0757766152382
 21
26404.655880376016
 12
8336.0745087807154
 22
25717.173118683662
 13
8981.0757766152382
 23
25717.173118683662
  0
SOLID
  8
_0-2_
  6
DASHED2
 62
    7
 10
8981.0757766152382
 20
26404.655880376016
 11
8981.0757766152382
 21
26279.668923989527
 12
8981.0757766152382
 22
25717.173118683662
 13
8981.0757766152382
 23
25717.173118683662
  0
SOLID
  8
_0-2_
  6
DASHED2
 62
    7
 10
8981.0757766152382
 20
26404.655880376016
 11
9041.0770468063255
 21
26404.655880376016
 12
8981.0757766152382
 22
26279.668923989527
 13
9041.0770468063255
 23
26279.668923989527
  0
SOLID
  8
_0-2_
  6
DASHED2
 62
    7
 10
10241.062813125101
 20
24877.165245384152
 11
10241.062813125101
 21
24697.16143481087
 12
10301.08390206771
 22
24877.165245384152
 13
10501.074923537002
 23
24877.165245384152
  0
SOLID
  8
_0-2_
  6
DASHED2
 62
    7
 10
10241.062813125101
 20
24697.16143481087
 11
10501.074923537002
 21
24697.16143481087
 12
10501.074923537002
 22
24877.165245384152
 13
10501.074923537002
 23
24877.165245384152
  0
SOLID
  8
_0-2_
  6
DASHED2
 62
    7
 10
10301.08390206771
 20
25047.140767694279
 11
10501.074923537002
 21
25047.140767694279
 12
10301.08390206771
 22
24877.165245384152
 13
10501.074923537002
 23
24877.165245384152
  0
SOLID
  8
_0-2_
  6
DASHED2
 62
    7
 10
10241.062813125101
 20
26404.685608503281
 11
10301.08390206771
 21
26404.68544934567
 12
10241.062813125101
 22
26279.678833365265
 13
10301.08390206771
 23
26279.668923989527
  0
SOLID
  8
_0-2_
  6
DASHED2
 62
    7
 10
10301.08390206771
 20
26404.68544934567
 11
10301.08390206771
 21
26279.668923989527
 12
11181.066197159252
 22
26404.683115901148
 13
11181.066197159252
 23
25717.173118683662
  0
SOLID
  8
_0-2_
  6
DASHED2
 62
    7
 10
10301.08390206771
 20
26279.668923989527
 11
10301.08390206771
 21
25047.140767694279
 12
11181.066197159252
 22
25717.173118683662
 13
11181.066197159252
 23
25047.140767694279
  0
SOLID
  8
_0-2_
  6
DASHED2
 62
    7
 10
10301.08390206771
 20
25047.140767694279
 11
10501.074923537002
 21
25047.140767694279
 12
11181.066197159252
 22
25047.140767694279
 13
11181.066197159252
 23
25047.140767694279
  0
SOLID
  8
_0-2_
  6
DASHED2
 62
    7
 10
11181.066197159252
 20
26404.683115901148
 11
11181.066197159252
 21
25717.173118683662
 12
13086.044592127876
 22
26404.678064479765
 13
13086.044592127876
 23
25717.173118683662
  0
SOLID
  8
_0-2_
  6
DASHED2
 62
    7
 10
13086.044592127876
 20
26404.678064479765
 11
13086.044592127876
 21
25717.173118683662
 12
13906.075163907114
 22
26404.675890008922
 13
13906.075163907114
 23
25717.173118683662
  0
SOLID
  8
_0-2_
  6
DASHED2
 62
    7
 10
13086.044592127876
 20
25717.173118683662
 11
13086.074320255142
 21
25047.140767694279
 12
13906.075163907114
 22
25717.173118683662
 13
13906.075163907114
 23
25047.140767694279
  0
SOLID
  8
_0-2_
  6
DASHED2
 62
    7
 10
13906.075163907114
 20
26404.675890008922
 11
13906.075163907114
 21
25717.173118683662
 12
15811.07337762725
 22
26404.670838534984
 13
15811.07337762725
 23
25717.163209307898
  0
SOLID
  8
_0-2_
  6
DASHED2
 62
    7
 10
15811.07337762725
 20
25717.163209307898
 11
15811.058513563617
 21
24697.16143481087
 12
16631.079175967093
 22
24697.141616059379
 13
16631.079175967093
 23
24697.141616059379
  0
SOLID
  8
_0-2_
  6
DASHED2
 62
    7
 10
15811.07337762725
 20
25717.163209307898
 11
16631.079175967093
 21
24697.141616059379
 12
16631.079175967093
 22
25717.163209307898
 13
16631.079175967093
 23
25717.163209307898
  0
SOLID
  8
_0-2_
  6
DASHED2
 62
    7
 10
15811.07337762725
 20
25717.163209307898
 11
16631.079175967093
 21
25717.163209307898
 12
16631.079175967093
 22
26404.668664129836
 13
16631.079175967093
 23
26404.668664129836
  0
SOLID
  8
_0-2_
  6
DASHED2
 62
    7
 10
15811.07337762725
 20
25717.163209307898
 11
16631.079175967093
 21
26404.668664129836
 12
15811.07337762725
 22
26404.670838534984
 13
15811.07337762725
 23
26404.670838534984
  0
SOLID
  8
_0-2_
  6
DASHED2
 62
    7
 10
16631.079175967093
 20
26404.668664129836
 11
16631.079175967093
 21
25717.163209307898
 12
18611.071545394283
 22
26404.663413794281
 13
18611.071545394283
 23
25717.163209307898
  0
SOLID
  8
_0-2_
  6
DASHED2
 62
    7
 10
18611.071545394283
 20
26404.663413794281
 11
18611.071545394283
 21
25717.163209307898
 12
19431.072389046235
 22
26404.661239402274
 13
19431.072389046235
 23
25717.163209307898
  0
SOLID
  8
_0-2_
  6
DASHED2
 62
    7
 10
18611.071545394283
 20
25717.163209307898
 11
18611.071545394283
 21
25047.140767694279
 12
19431.072389046235
 22
25717.163209307898
 13
19431.067434358366
 23
25047.140767694279
  0
SOLID
  8
_0-2_
  6
DASHED2
 62
    7
 10
19431.072389046235
 20
26404.661239402274
 11
19431.072389046235
 21
25717.163209307898
 12
21411.069713161297
 22
26404.655989053579
 13
21411.069713161297
 23
25717.163209307898
  0
SOLID
  8
_0-2_
  6
DASHED2
 62
    7
 10
21411.069713161297
 20
26404.655989053579
 11
21411.069713161297
 21
25717.163209307898
 12
22231.080466189021
 22
26404.653814635294
 13
22231.080466189021
 23
25717.133481180633
  0
SOLID
  8
_0-2_
  6
DASHED2
 62
    7
 10
21411.069713161297
 20
25717.163209307898
 11
21411.069713161297
 21
25047.140767694279
 12
22231.080466189021
 22
25717.133481180633
 13
22231.080466189021
 23
25047.140767694279
  0
SOLID
  8
_0-2_
  6
DASHED2
 62
    7
 10
22231.080466189021
 20
26404.653814635294
 11
22231.080466189021
 21
25717.163209307898
 12
24211.06292624045
 22
26404.648564326009
 13
24211.06292624045
 23
25717.133481180633
  0
SOLID
  8
_0-2_
  6
DASHED2
 62
    7
 10
24211.06292624045
 20
26404.648564326009
 11
24211.06292624045
 21
25717.133481180633
 12
25031.068724580294
 22
26404.646389920868
 13
25031.068724580294
 23
25717.133481180633
  0
SOLID
  8
_0-2_
  6
DASHED2
 62
    7
 10
24211.06292624045
 20
25717.133481180633
 11
24211.06292624045
 21
24697.141616059379
 12
25031.068724580294
 22
25717.133481180633
 13
25031.068724580294
 23
24697.141616059379
  0
SOLID
  8
_0-2_
  6
DASHED2
 62
    7
 10
25031.068724580294
 20
26404.646389920868
 11
25031.068724580294
 21
25717.133481180633
 12
27961.072947553271
 22
26404.638620443773
 13
27961.072947553271
 23
25717.133481180633
  0
SOLID
  8
_0-2_
  6
DASHED2
 62
    7
 10
27961.072947553271
 20
25717.133481180633
 11
27961.058083489639
 21
25047.140767694279
 12
28581.06790567232
 22
25047.140767694279
 13
28581.06790567232
 23
25047.140767694279
  0
SOLID
  8
_0-2_
  6
DASHED2
 62
    7
 10
27961.072947553271
 20
25717.133481180633
 11
28581.06790567232
 21
25047.140767694279
 12
28781.063881829482
 22
25047.140767694279
 13
28781.063881829482
 23
25047.140767694279
  0
SOLID
  8
_0-2_
  6
DASHED2
 62
    7
 10
27961.072947553271
 20
25717.133481180633
 11
28781.063881829482
 21
25047.140767694279
 12
28781.063881829482
 22
25907.135851889797
 13
28781.063881829482
 23
25907.135851889797
  0
SOLID
  8
_0-2_
  6
DASHED2
 62
    7
 10
27961.072947553271
 20
25717.133481180633
 11
28781.063881829482
 21
25907.135851889797
 12
28781.063881829482
 22
26404.636446078042
 13
28781.063881829482
 23
26404.636446078042
  0
SOLID
  8
_0-2_
  6
DASHED2
 62
    7
 10
27961.072947553271
 20
25717.133481180633
 11
28781.063881829482
 21
26404.636446078042
 12
27961.072947553271
 22
26404.638620443773
 13
27961.072947553271
 23
26404.638620443773
  0
SOLID
  8
_0-2_
  6
DASHED2
 62
    7
 10
28886.276678898662
 20
26404.636167085813
 11
28926.047958487743
 21
26404.636061624511
 12
28886.276678898662
 22
26279.639195862262
 13
28926.047958487743
 23
26279.639195862262
  0
SOLID
  8
_0-2_
  6
DASHED2
 62
    7
 10
28781.063881829482
 20
26404.636446078042
 11
28886.276678898662
 21
26404.636167085813
 12
28781.063881829482
 22
25907.135851889797
 13
28799.868853478863
 23
25907.135851889797
  0
SOLID
  8
_0-2_
  6
DASHED2
 62
    7
 10
28886.276678898662
 20
26404.636167085813
 11
28886.276678898662
 21
26279.639195862262
 12
28799.868853478863
 22
25907.135851889797
 13
28799.868853478863
 23
25907.135851889797
  0
SOLID
  8
_0-2_
  6
DASHED2
 62
    7
 10
28781.063881829482
 20
25907.135851889797
 11
28799.868853478863
 21
25907.135851889797
 12
28781.063881829482
 22
25869.21267087883
 13
28791.067396653226
 23
25869.21267087883
  0
SOLID
  8
_0-2_
  6
DASHED2
 62
    7
 10
28581.06790567232
 20
25047.140767694279
 11
28581.06790567232
 21
24897.142546904418
 12
28781.063881829482
 22
25047.140767694279
 13
28781.063881829482
 23
24897.142546904418
  0
SOLID
  8
_0-2_
  6
DASHED2
 62
    7
 10
28581.06790567232
 20
24897.142546904418
 11
28781.063881829482
 21
24897.142546904418
 12
28581.06790567232
 22
24697.141616059379
 13
28926.067777239244
 23
24697.141616059379
  0
SOLID
  8
_0-2_
  6
DASHED2
 62
    7
 10
28781.063881829482
 20
24897.142546904418
 11
28926.067777239244
 21
24897.142546904418
 12
28926.067777239244
 22
24697.141616059379
 13
28926.067777239244
 23
24697.141616059379
  0
SOLID
  8
_0-2_
  6
DASHED2
 62
    7
 10
31716.06738487041
 20
24897.132637528644
 11
31861.05146152867
 21
24897.132637528644
 12
31716.06738487041
 22
24697.141616059379
 13
32681.072123932153
 23
24697.141616059379
  0
SOLID
  8
_0-2_
  6
DASHED2
 62
    7
 10
31861.05146152867
 20
24897.132637528644
 11
32681.072123932153
 21
24897.132637528644
 12
32681.072123932153
 22
24697.141616059379
 13
32681.072123932153
 23
24697.141616059379
  0
SOLID
  8
_0-2_
  6
DASHED2
 62
    7
 10
31861.05146152867
 20
24897.132637528644
 11
32681.072123932153
 21
24897.132637528644
 12
32681.072123932153
 22
25717.133481180633
 13
32681.072123932153
 23
25717.133481180633
  0
SOLID
  8
_0-2_
  6
DASHED2
 62
    7
 10
31861.05146152867
 20
24897.132637528644
 11
32681.072123932153
 21
25717.133481180633
 12
32681.072123932153
 22
26404.634937275317
 13
32681.072123932153
 23
26404.634937275317
  0
SOLID
  8
_0-2_
  6
DASHED2
 62
    7
 10
31861.05146152867
 20
24897.132637528644
 11
32681.072123932153
 21
26404.634937275317
 12
31861.05146152867
 22
26404.635892700229
 13
31861.05146152867
 23
26404.635892700229
  0
SOLID
  8
_0-2_
  6
DASHED2
 62
    7
 10
31861.05146152867
 20
24897.132637528644
 11
31861.05146152867
 21
25957.128652569248
 12
31861.046506840801
 22
25869.21267087883
 13
31861.046506840801
 23
25869.21267087883
  0
SOLID
  8
_0-2_
  6
DASHED2
 62
    7
 10
31830.631849557095
 20
25957.128652569248
 11
31851.033082641271
 21
25869.192852127336
 12
31861.05146152867
 22
25957.128652569248
 13
31861.046506840801
 23
25869.21267087883
  0
SOLID
  8
_0-2_
  6
DASHED2
 62
    7
 10
31861.05146152867
 20
25957.128652569248
 11
31830.631849557095
 21
25957.128652569248
 12
31861.05146152867
 22
26404.635892700229
 13
31755.808936332239
 23
26404.636015320716
  0
SOLID
  8
_0-2_
  6
DASHED2
 62
    7
 10
31830.631849557095
 20
25957.128652569248
 11
31755.808936332239
 21
26279.639195862262
 12
31755.808936332239
 22
26404.636015320716
 13
31755.808936332239
 23
26404.636015320716
  0
SOLID
  8
_0-2_
  6
DASHED2
 62
    7
 10
31716.06738487041
 20
26404.636061624511
 11
31755.808936332239
 21
26404.636015320716
 12
31716.06738487041
 22
26279.639195862262
 13
31755.808936332239
 23
26279.639195862262
  0
SOLID
  8
_0-2_
  6
DASHED2
 62
    7
 10
32451.060648615792
 20
24597.175833451987
 11
32451.060648615792
 21
24347.142464424483
 12
32701.064289516034
 22
24597.175833451987
 13
32701.064289516034
 23
24347.142464424483
  0
SOLID
  8
_0-2_
  6
DASHED2
 62
    7
 10
32451.060648615792
 20
22647.159325680961
 11
32451.060648615792
 21
22397.175503532216
 12
32701.064289516034
 22
22647.159325680961
 13
32701.064289516034
 23
22397.175503532216
  0
SOLID
  8
_0-2_
  6
DASHED2
 62
    7
 10
32681.072123932153
 20
26404.634937275317
 11
32681.072123932153
 21
25717.133481180633
 12
34861.060469516494
 22
26404.632397320809
 13
34861.060469516494
 23
25717.133481180633
  0
SOLID
  8
_0-2_
  6
DASHED2
 62
    7
 10
34861.060469516494
 20
26404.632397320809
 11
34861.060469516494
 21
25717.133481180633
 12
35681.071222544211
 22
26404.63144190744
 13
35681.071222544211
 23
25717.133481180633
  0
SOLID
  8
_0-2_
  6
DASHED2
 62
    7
 10
34861.060469516494
 20
25717.133481180633
 11
34861.060469516494
 21
25047.140767694279
 12
35681.071222544211
 22
25717.133481180633
 13
35681.071222544211
 23
25047.140767694279
  0
SOLID
  8
_0-2_
  6
DASHED2
 62
    7
 10
36861.064823279077
 20
26404.630067069781
 11
36861.064823279077
 21
25717.133481180633
 12
37681.075576306815
 22
26404.629111656413
 13
37681.075576306815
 23
25717.133481180633
  0
SOLID
  8
_0-2_
  6
DASHED2
 62
    7
 10
36861.064823279077
 20
25717.133481180633
 11
36861.064823279077
 21
24697.131706683605
 12
37681.075576306815
 22
25717.133481180633
 13
37681.075576306815
 23
24697.131706683605
  0
SOLID
  8
_0-2_
  6
DASHED2
 62
    7
 10
36841.062748319433
 20
22647.159325680961
 11
36841.062748319433
 21
22397.175503532216
 12
36591.069016794936
 22
22647.159325680961
 13
36591.069016794936
 23
22397.175503532216
  0
SOLID
  8
_0-2_
  6
DASHED2
 62
    7
 10
36591.069016794936
 20
24597.175833451987
 11
36841.062748319433
 21
24597.175833451987
 12
36591.069016794936
 22
24347.142464424483
 13
36841.062748319433
 23
24347.142464424483
  0
LINE
  8
_0-6_
  6
CONTINUOUS
 62
    7
 10
9513.0537096961961
 20
9307.1708186715859
 11
7713.053709696197
 21
9307.1708186715859
  0
LINE
  8
_0-6_
  6
CONTINUOUS
 62
    7
 10
9513.0537096961961
 20
9607.1708186715859
 11
7713.053709696197
 21
9607.1708186715859
  0
LINE
  8
_0-6_
  6
CONTINUOUS
 62
    7
 10
9513.0537096961961
 20
9857.1708186715859
 11
8413.0537096961961
 21
9857.1708186715859
  0
LINE
  8
_0-6_
  6
CONTINUOUS
 62
    7
 10
9513.0537096961961
 20
10107.170818671585
 11
7713.053709696197
 21
10107.170818671585
  0
LINE
  8
_0-6_
  6
CONTINUOUS
 62
    7
 10
9513.0537096961961
 20
10357.170818671585
 11
7713.053709696197
 21
10357.170818671585
  0
LINE
  8
_0-6_
  6
CONTINUOUS
 62
    7
 10
9513.0537096961961
 20
11707.170818671585
 11
8413.0537096961961
 21
11707.170818671585
  0
LINE
  8
_0-6_
  6
CONTINUOUS
 62
    7
 10
9513.0537096961961
 20
12207.170818671585
 11
8413.0537096961961
 21
12207.170818671585
  0
LINE
  8
_0-6_
  6
CONTINUOUS
 62
    7
 10
9513.0537096961961
 20
11957.170818671585
 11
7713.053709696197
 21
11957.170818671585
  0
LINE
  8
_0-6_
  6
CONTINUOUS
 62
    7
 10
9513.0537096961961
 20
12457.170818671585
 11
7713.053709696197
 21
12457.170818671585
  0
LINE
  8
_0-6_
  6
CONTINUOUS
 62
    7
 10
9513.0537096961961
 20
12707.170818671585
 11
7713.053709696197
 21
12707.170818671585
  0
LINE
  8
_0-6_
  6
CONTINUOUS
 62
    7
 10
9513.0537096961961
 20
14057.170818671585
 11
8413.0537096961961
 21
14057.170818671585
  0
LINE
  8
_0-6_
  6
CONTINUOUS
 62
    7
 10
9513.0537096961961
 20
14307.170818671585
 11
8413.0537096961961
 21
14307.170818671585
  0
LINE
  8
_0-6_
  6
CONTINUOUS
 62
    7
 10
9513.0537096961961
 20
14557.170818671585
 11
8413.0537096961961
 21
14557.170818671585
  0
LINE
  8
_0-6_
  6
CONTINUOUS
 62
    7
 10
9513.0537096961961
 20
14807.170818671585
 11
7713.053709696197
 21
14807.170818671585
  0
LINE
  8
_0-6_
  6
CONTINUOUS
 62
    7
 10
9513.0537096961961
 20
15057.170818671585
 11
7713.053709696197
 21
15057.170818671585
  0
LINE
  8
_0-6_
  6
CONTINUOUS
 62
    7
 10
9513.0537096961961
 20
15307.170818671585
 11
7913.053709696197
 21
15307.170818671585
  0
LINE
  8
_0-6_
  6
CONTINUOUS
 62
    7
 10
9513.0537096961961
 20
15707.170818671585
 11
7713.053709696197
 21
15707.170818671585
  0
LINE
  8
_0-6_
  6
CONTINUOUS
 62
    7
 10
9513.0537096961961
 20
16257.170818671585
 11
8513.0537096961961
 21
16257.170818671585
  0
LINE
  8
_0-6_
  6
CONTINUOUS
 62
    7
 10
9513.0537096961961
 20
16707.170818671584
 11
8413.0537096961961
 21
16707.170818671584
  0
LINE
  8
_0-6_
  6
CONTINUOUS
 62
    7
 10
9513.0537096961961
 20
17007.170818671584
 11
8413.0537096961961
 21
17007.170818671584
  0
LINE
  8
_0-6_
  6
CONTINUOUS
 62
    7
 10
9513.0537096961961
 20
17307.170818671584
 11
8413.0537096961961
 21
17307.170818671584
  0
LINE
  8
_0-6_
  6
CONTINUOUS
 62
    7
 10
9513.0537096961961
 20
17557.170818671584
 11
7713.053709696197
 21
17557.170818671584
  0
LINE
  8
_0-6_
  6
CONTINUOUS
 62
    7
 10
9513.0537096961961
 20
17807.170818671584
 11
7713.053709696197
 21
17807.170818671584
  0
LINE
  8
_0-6_
  6
CONTINUOUS
 62
    7
 10
9513.0537096961961
 20
19157.170818671584
 11
8413.0537096961961
 21
19157.170818671584
  0
LINE
  8
_0-6_
  6
CONTINUOUS
 62
    7
 10
9513.0537096961961
 20
19407.170818671584
 11
8413.0537096961961
 21
19407.170818671584
  0
LINE
  8
_0-6_
  6
CONTINUOUS
 62
    7
 10
9513.0537096961961
 20
19657.170818671584
 11
8413.0537096961961
 21
19657.170818671584
  0
LINE
  8
_0-6_
  6
CONTINUOUS
 62
    7
 10
9513.0537096961961
 20
19907.170818671584
 11
7713.053709696197
 21
19907.170818671584
  0
LINE
  8
_0-6_
  6
CONTINUOUS
 62
    7
 10
9513.0537096961961
 20
20157.170818671584
 11
7713.053709696197
 21
20157.170818671584
  0
LINE
  8
_0-6_
  6
CONTINUOUS
 62
    7
 10
9513.0537096961961
 20
20407.170818671584
 11
8413.0537096961961
 21
20407.170818671584
  0
LINE
  8
_0-6_
  6
CONTINUOUS
 62
    7
 10
9513.0537096961961
 20
20657.170818671584
 11
8513.0537096961961
 21
20657.170818671584
  0
LINE
  8
_0-6_
  6
CONTINUOUS
 62
    7
 10
9513.0537096961961
 20
20907.170818671584
 11
7713.053709696197
 21
20907.170818671584
  0
LINE
  8
_0-6_
  6
CONTINUOUS
 62
    7
 10
9513.0537096961961
 20
21157.170818671584
 11
8213.0537096961961
 21
21157.170818671584
  0
LINE
  8
_0-6_
  6
CONTINUOUS
 62
    7
 10
9513.0537096961961
 20
21907.170818671584
 11
8413.0537096961961
 21
21907.170818671584
  0
LINE
  8
_0-6_
  6
CONTINUOUS
 62
    7
 10
9513.0537096961961
 20
22307.170818671584
 11
8413.0537096961961
 21
22307.170818671584
  0
LINE
  8
_0-6_
  6
CONTINUOUS
 62
    7
 10
9513.0537096961961
 20
22557.170818671584
 11
7713.053709696197
 21
22557.170818671584
  0
LINE
  8
_0-6_
  6
CONTINUOUS
 62
    7
 10
9513.0537096961961
 20
22807.170818671584
 11
8413.0537096961961
 21
22807.170818671584
  0
LINE
  8
_0-6_
  6
CONTINUOUS
 62
    7
 10
7713.053709696197
 20
23057.170818671584
 11
9513.0537096961961
 21
23057.170818671584
  0
TEXT
  8
_0-6_
 62
    7
 10
5909.3390314278731
 20
9203.4623961402066
 40
200
 41
1
 50
0
  1
オペラカーテン
  0
TEXT
  8
_0-6_
 62
    7
 10
5908.6103159329468
 20
11858.599084301109
 40
200
 41
1
 50
0
  1
重量バトン
  0
TEXT
  8
_0-6_
 62
    7
 10
5714.176348573932
 20
21055.118531715874
 40
200
 41
1
 50
0
  1
アッパーホリゾントライト
  0
TEXT
  8
_0-6_
 62
    7
 10
6502.3296812591979
 20
15608.762289209147
 40
200
 41
1
 50
0
  1
スクリーン
  0
LINE
  8
_0-6_
  6
CONTINUOUS
 62
    7
 10
9513.0537096961961
 20
10357.170818671585
 11
9217.6113837925349
 21
10305.076365371505
  0
LINE
  8
_0-6_
  6
CONTINUOUS
 62
    7
 10
9513.0537096961961
 20
10357.170818671585
 11
9217.6113837925349
 21
10409.265271971666
  0
LINE
  8
_0-6_
  6
CONTINUOUS
 62
    7
 10
9513.0537096961961
 20
10532.170818671585
 11
9020.6498331900929
 21
10445.34672983812
  0
LINE
  8
_0-6_
  6
CONTINUOUS
 62
    7
 10
9513.0537096961961
 20
10532.170818671585
 11
9020.6498331900929
 21
10618.994907505049
  0
LINE
  8
_0-6_
  6
CONTINUOUS
 62
    7
 10
9513.0537096961961
 20
11182.170818671585
 11
9020.6498331900929
 21
11095.346729838121
  0
LINE
  8
_0-6_
  6
CONTINUOUS
 62
    7
 10
9513.0537096961961
 20
11182.170818671585
 11
9020.6498331900929
 21
11268.994907505049
  0
LINE
  8
_0-6_
  6
CONTINUOUS
 62
    7
 10
9513.0537096961961
 20
12882.170818671585
 11
9020.6498331900929
 21
12795.346729838121
  0
LINE
  8
_0-6_
  6
CONTINUOUS
 62
    7
 10
9513.0537096961961
 20
12882.170818671585
 11
9020.6498331900929
 21
12968.994907505051
  0
LINE
  8
_0-6_
  6
CONTINUOUS
 62
    7
 10
9513.0537096961961
 20
13532.170818671585
 11
9020.6498331900929
 21
13445.346729838121
  0
LINE
  8
_0-6_
  6
CONTINUOUS
 62
    7
 10
9513.0537096961961
 20
13532.170818671585
 11
9020.6498331900929
 21
13618.994907505051
  0
LINE
  8
_0-6_
  6
CONTINUOUS
 62
    7
 10
9513.0537096961961
 20
15707.170818671585
 11
9020.6498331900929
 21
15620.346729838121
  0
LINE
  8
_0-6_
  6
CONTINUOUS
 62
    7
 10
9513.0537096961961
 20
15707.170818671585
 11
9020.6498331900929
 21
15793.994907505049
  0
LINE
  8
_0-6_
  6
CONTINUOUS
 62
    7
 10
9513.0537096961961
 20
16257.170818671585
 11
9020.6498331900929
 21
16170.346729838121
  0
LINE
  8
_0-6_
  6
CONTINUOUS
 62
    7
 10
9513.0537096961961
 20
16257.170818671585
 11
9020.6498331900929
 21
16343.994907505049
  0
LINE
  8
_0-6_
  6
CONTINUOUS
 62
    7
 10
9513.0537096961961
 20
17982.170818671584
 11
9020.6498331900929
 21
17895.346729838121
  0
LINE
  8
_0-6_
  6
CONTINUOUS
 62
    7
 10
9513.0537096961961
 20
17982.170818671584
 11
9020.6498331900929
 21
18068.994907505049
  0
LINE
  8
_0-6_
  6
CONTINUOUS
 62
    7
 10
9513.0537096961961
 20
18632.170818671584
 11
9020.6498331900929
 21
18545.346729838121
  0
LINE
  8
_0-6_
  6
CONTINUOUS
 62
    7
 10
9513.0537096961961
 20
18632.170818671584
 11
9020.6498331900929
 21
18718.994907505053
  0
LINE
  8
_0-6_
  6
CONTINUOUS
 62
    7
 10
9513.0537096961961
 20
21157.170818671584
 11
9020.6498331900929
 21
21070.346729838121
  0
LINE
  8
_0-6_
  6
CONTINUOUS
 62
    7
 10
9513.0537096961961
 20
21157.170818671584
 11
9020.6498331900929
 21
21243.994907505053
  0
LINE
  8
_0-6_
  6
CONTINUOUS
 62
    7
 10
9513.0537096961961
 20
20657.170818671584
 11
9020.6498331900929
 21
20570.346729838121
  0
LINE
  8
_0-6_
  6
CONTINUOUS
 62
    7
 10
9513.0537096961961
 20
20657.170818671584
 11
9020.6498331900929
 21
20743.994907505053
  0
LINE
  8
_0-6_
  6
CONTINUOUS
 62
    7
 10
9513.0537096961961
 20
23057.170818671584
 11
9217.6113837925349
 21
23005.076365371507
  0
LINE
  8
_0-6_
  6
CONTINUOUS
 62
    7
 10
9217.6113837925349
 20
23109.265271971664
 11
9513.0537096961961
 21
23057.170818671584
  0
LINE
  8
_0-6_
  6
CONTINUOUS
 62
    7
 10
9513.0537096961961
 20
22807.170818671584
 11
9217.6113837925349
 21
22755.076365371507
  0
LINE
  8
_0-6_
  6
CONTINUOUS
 62
    7
 10
9513.0537096961961
 20
22807.170818671584
 11
9217.6113837925349
 21
22859.265271971664
  0
LINE
  8
_0-6_
  6
CONTINUOUS
 62
    7
 10
9513.0537096961961
 20
22557.170818671584
 11
9217.6113837925349
 21
22505.076365371507
  0
LINE
  8
_0-6_
  6
CONTINUOUS
 62
    7
 10
9513.0537096961961
 20
22557.170818671584
 11
9217.6113837925349
 21
22609.265271971664
  0
LINE
  8
_0-6_
  6
CONTINUOUS
 62
    7
 10
9513.0537096961961
 20
22307.170818671584
 11
9217.6113837925349
 21
22255.076365371507
  0
LINE
  8
_0-6_
  6
CONTINUOUS
 62
    7
 10
9513.0537096961961
 20
22307.170818671584
 11
9217.6113837925349
 21
22359.265271971664
  0
LINE
  8
_0-6_
  6
CONTINUOUS
 62
    7
 10
9513.0537096961961
 20
21907.170818671584
 11
9217.6113837925349
 21
21855.076365371507
  0
LINE
  8
_0-6_
  6
CONTINUOUS
 62
    7
 10
9513.0537096961961
 20
21907.170818671584
 11
9217.6113837925349
 21
21959.265271971664
  0
LINE
  8
_0-6_
  6
CONTINUOUS
 62
    7
 10
9513.0537096961961
 20
20907.170818671584
 11
9217.6113837925349
 21
20855.076365371507
  0
LINE
  8
_0-6_
  6
CONTINUOUS
 62
    7
 10
9513.0537096961961
 20
20907.170818671584
 11
9217.6113837925349
 21
20959.265271971664
  0
LINE
  8
_0-6_
  6
CONTINUOUS
 62
    7
 10
9513.0537096961961
 20
20407.170818671584
 11
9217.6113837925349
 21
20355.076365371507
  0
LINE
  8
_0-6_
  6
CONTINUOUS
 62
    7
 10
9513.0537096961961
 20
20407.170818671584
 11
9217.6113837925349
 21
20459.265271971664
  0
LINE
  8
_0-6_
  6
CONTINUOUS
 62
    7
 10
9513.0537096961961
 20
20157.170818671584
 11
9217.6113837925349
 21
20105.076365371507
  0
LINE
  8
_0-6_
  6
CONTINUOUS
 62
    7
 10
9513.0537096961961
 20
20157.170818671584
 11
9217.6113837925349
 21
20209.265271971664
  0
LINE
  8
_0-6_
  6
CONTINUOUS
 62
    7
 10
9513.0537096961961
 20
19907.170818671584
 11
9217.6113837925349
 21
19855.076365371507
  0
LINE
  8
_0-6_
  6
CONTINUOUS
 62
    7
 10
9513.0537096961961
 20
19907.170818671584
 11
9217.6113837925349
 21
19959.265271971664
  0
LINE
  8
_0-6_
  6
CONTINUOUS
 62
    7
 10
9513.0537096961961
 20
19657.170818671584
 11
9217.6113837925349
 21
19605.076365371507
  0
LINE
  8
_0-6_
  6
CONTINUOUS
 62
    7
 10
9513.0537096961961
 20
19657.170818671584
 11
9217.6113837925349
 21
19709.265271971664
  0
LINE
  8
_0-6_
  6
CONTINUOUS
 62
    7
 10
9513.0537096961961
 20
19407.170818671584
 11
9217.6113837925349
 21
19355.076365371507
  0
LINE
  8
_0-6_
  6
CONTINUOUS
 62
    7
 10
9513.0537096961961
 20
19407.170818671584
 11
9217.6113837925349
 21
19459.265271971664
  0
LINE
  8
_0-6_
  6
CONTINUOUS
 62
    7
 10
9513.0537096961961
 20
19157.170818671584
 11
9217.6113837925349
 21
19105.076365371507
  0
LINE
  8
_0-6_
  6
CONTINUOUS
 62
    7
 10
9513.0537096961961
 20
19157.170818671584
 11
9217.6113837925349
 21
19209.265271971664
  0
LINE
  8
_0-6_
  6
CONTINUOUS
 62
    7
 10
9513.0537096961961
 20
17807.170818671584
 11
9217.6113837925349
 21
17755.076365371507
  0
LINE
  8
_0-6_
  6
CONTINUOUS
 62
    7
 10
9513.0537096961961
 20
17807.170818671584
 11
9217.6113837925349
 21
17859.265271971664
  0
LINE
  8
_0-6_
  6
CONTINUOUS
 62
    7
 10
9513.0537096961961
 20
17557.170818671584
 11
9217.6113837925349
 21
17505.076365371507
  0
LINE
  8
_0-6_
  6
CONTINUOUS
 62
    7
 10
9513.0537096961961
 20
17557.170818671584
 11
9217.6113837925349
 21
17609.265271971664
  0
LINE
  8
_0-6_
  6
CONTINUOUS
 62
    7
 10
9513.0537096961961
 20
17307.170818671584
 11
9217.6113837925349
 21
17255.076365371507
  0
LINE
  8
_0-6_
  6
CONTINUOUS
 62
    7
 10
9513.0537096961961
 20
17307.170818671584
 11
9217.6113837925349
 21
17359.265271971664
  0
LINE
  8
_0-6_
  6
CONTINUOUS
 62
    7
 10
9513.0537096961961
 20
17007.170818671584
 11
9217.6113837925349
 21
16955.076365371507
  0
LINE
  8
_0-6_
  6
CONTINUOUS
 62
    7
 10
9513.0537096961961
 20
17007.170818671584
 11
9217.6113837925349
 21
17059.265271971664
  0
LINE
  8
_0-6_
  6
CONTINUOUS
 62
    7
 10
9513.0537096961961
 20
16707.170818671584
 11
9217.6113837925349
 21
16655.076365371507
  0
LINE
  8
_0-6_
  6
CONTINUOUS
 62
    7
 10
9513.0537096961961
 20
16707.170818671584
 11
9217.6113837925349
 21
16759.265271971667
  0
LINE
  8
_0-6_
  6
CONTINUOUS
 62
    7
 10
9513.0537096961961
 20
15307.170818671585
 11
9217.6113837925349
 21
15255.076365371507
  0
LINE
  8
_0-6_
  6
CONTINUOUS
 62
    7
 10
9513.0537096961961
 20
15307.170818671585
 11
9217.6113837925349
 21
15359.265271971667
  0
LINE
  8
_0-6_
  6
CONTINUOUS
 62
    7
 10
9513.0537096961961
 20
15057.170818671585
 11
9217.6113837925349
 21
15005.076365371507
  0
LINE
  8
_0-6_
  6
CONTINUOUS
 62
    7
 10
9513.0537096961961
 20
15057.170818671585
 11
9217.6113837925349
 21
15109.265271971667
  0
LINE
  8
_0-6_
  6
CONTINUOUS
 62
    7
 10
9513.0537096961961
 20
14807.170818671585
 11
9217.6113837925349
 21
14755.076365371507
  0
LINE
  8
_0-6_
  6
CONTINUOUS
 62
    7
 10
9513.0537096961961
 20
14807.170818671585
 11
9217.6113837925349
 21
14859.265271971667
  0
LINE
  8
_0-6_
  6
CONTINUOUS
 62
    7
 10
9513.0537096961961
 20
14557.170818671585
 11
9217.6113837925349
 21
14505.076365371507
  0
LINE
  8
_0-6_
  6
CONTINUOUS
 62
    7
 10
9513.0537096961961
 20
14557.170818671585
 11
9217.6113837925349
 21
14609.265271971667
  0
LINE
  8
_0-6_
  6
CONTINUOUS
 62
    7
 10
9513.0537096961961
 20
14307.170818671585
 11
9217.6113837925349
 21
14255.076365371507
  0
LINE
  8
_0-6_
  6
CONTINUOUS
 62
    7
 10
9513.0537096961961
 20
14307.170818671585
 11
9217.6113837925349
 21
14359.265271971667
  0
LINE
  8
_0-6_
  6
CONTINUOUS
 62
    7
 10
9513.0537096961961
 20
14057.170818671585
 11
9217.6113837925349
 21
14005.076365371507
  0
LINE
  8
_0-6_
  6
CONTINUOUS
 62
    7
 10
9513.0537096961961
 20
14057.170818671585
 11
9217.6113837925349
 21
14109.265271971667
  0
LINE
  8
_0-6_
  6
CONTINUOUS
 62
    7
 10
9513.0537096961961
 20
12707.170818671585
 11
9217.6113837925349
 21
12655.076365371505
  0
LINE
  8
_0-6_
  6
CONTINUOUS
 62
    7
 10
9513.0537096961961
 20
12707.170818671585
 11
9217.6113837925349
 21
12759.265271971666
  0
LINE
  8
_0-6_
  6
CONTINUOUS
 62
    7
 10
9513.0537096961961
 20
12457.170818671585
 11
9217.6113837925349
 21
12405.076365371505
  0
LINE
  8
_0-6_
  6
CONTINUOUS
 62
    7
 10
9513.0537096961961
 20
12457.170818671585
 11
9217.6113837925349
 21
12509.265271971666
  0
LINE
  8
_0-6_
  6
CONTINUOUS
 62
    7
 10
9513.0537096961961
 20
12207.170818671585
 11
9217.6113837925349
 21
12155.076365371505
  0
LINE
  8
_0-6_
  6
CONTINUOUS
 62
    7
 10
9513.0537096961961
 20
12207.170818671585
 11
9217.6113837925349
 21
12259.265271971666
  0
LINE
  8
_0-6_
  6
CONTINUOUS
 62
    7
 10
9513.0537096961961
 20
11957.170818671585
 11
9217.6113837925349
 21
11905.076365371505
  0
LINE
  8
_0-6_
  6
CONTINUOUS
 62
    7
 10
9513.0537096961961
 20
11957.170818671585
 11
9217.6113837925349
 21
12009.265271971666
  0
LINE
  8
_0-6_
  6
CONTINUOUS
 62
    7
 10
9513.0537096961961
 20
11707.170818671585
 11
9217.6113837925349
 21
11655.076365371505
  0
LINE
  8
_0-6_
  6
CONTINUOUS
 62
    7
 10
9513.0537096961961
 20
11707.170818671585
 11
9217.6113837925349
 21
11759.265271971666
  0
LINE
  8
_0-6_
  6
CONTINUOUS
 62
    7
 10
9513.0537096961961
 20
10107.170818671585
 11
9217.6113837925349
 21
10055.076365371505
  0
LINE
  8
_0-6_
  6
CONTINUOUS
 62
    7
 10
9513.0537096961961
 20
10107.170818671585
 11
9217.6113837925349
 21
10159.265271971666
  0
LINE
  8
_0-6_
  6
CONTINUOUS
 62
    7
 10
9513.0537096961961
 20
9857.1708186715859
 11
9217.6113837925349
 21
9805.0763653715057
  0
LINE
  8
_0-6_
  6
CONTINUOUS
 62
    7
 10
9513.0537096961961
 20
9857.1708186715859
 11
9217.6113837925349
 21
9909.2652719716661
  0
LINE
  8
_0-6_
  6
CONTINUOUS
 62
    7
 10
9513.0537096961961
 20
9607.1708186715859
 11
9217.6113837925349
 21
9555.0763653715057
  0
LINE
  8
_0-6_
  6
CONTINUOUS
 62
    7
 10
9513.0537096961961
 20
9607.1708186715859
 11
9217.6113837925349
 21
9659.2652719716625
  0
LINE
  8
_0-6_
  6
CONTINUOUS
 62
    7
 10
9513.0537096961961
 20
9307.1708186715859
 11
9217.6113837925349
 21
9255.0763653715057
  0
LINE
  8
_0-6_
  6
CONTINUOUS
 62
    7
 10
9513.0537096961961
 20
9307.1708186715859
 11
9217.6113837925349
 21
9359.2652719716625
  0
LINE
  8
_0-6_
  6
CONTINUOUS
 62
    7
 10
9217.6113837925349
 20
10159.265271971666
 11
9217.6113837925349
 21
10055.076365371505
  0
LINE
  8
_0-6_
  6
CONTINUOUS
 62
    7
 10
9217.6113837925349
 20
10409.265271971666
 11
9217.6113837925349
 21
10305.076365371505
  0
LINE
  8
_0-6_
  6
CONTINUOUS
 62
    7
 10
9020.6498331900929
 20
10618.994907505049
 11
9020.6498331900929
 21
10445.34672983812
  0
LINE
  8
_0-6_
  6
CONTINUOUS
 62
    7
 10
9020.6498331900929
 20
11268.994907505049
 11
9020.6498331900929
 21
11095.346729838121
  0
LINE
  8
_0-6_
  6
CONTINUOUS
 62
    7
 10
9217.6113837925349
 20
11759.265271971666
 11
9217.6113837925349
 21
11655.076365371505
  0
LINE
  8
_0-6_
  6
CONTINUOUS
 62
    7
 10
9217.6113837925349
 20
12009.265271971666
 11
9217.6113837925349
 21
11905.076365371505
  0
LINE
  8
_0-6_
  6
CONTINUOUS
 62
    7
 10
9217.6113837925349
 20
12259.265271971666
 11
9217.6113837925349
 21
12155.076365371505
  0
LINE
  8
_0-6_
  6
CONTINUOUS
 62
    7
 10
9020.6498331900929
 20
12968.994907505051
 11
9020.6498331900929
 21
12795.346729838121
  0
LINE
  8
_0-6_
  6
CONTINUOUS
 62
    7
 10
9217.6113837925349
 20
12759.265271971666
 11
9217.6113837925349
 21
12655.076365371505
  0
LINE
  8
_0-6_
  6
CONTINUOUS
 62
    7
 10
9217.6113837925349
 20
12509.265271971666
 11
9217.6113837925349
 21
12405.076365371505
  0
LINE
  8
_0-6_
  6
CONTINUOUS
 62
    7
 10
9020.6498331900929
 20
13618.994907505051
 11
9020.6498331900929
 21
13445.346729838121
  0
LINE
  8
_0-6_
  6
CONTINUOUS
 62
    7
 10
9217.6113837925349
 20
14609.265271971667
 11
9217.6113837925349
 21
14505.076365371507
  0
LINE
  8
_0-6_
  6
CONTINUOUS
 62
    7
 10
9217.6113837925349
 20
14359.265271971667
 11
9217.6113837925349
 21
14255.076365371507
  0
LINE
  8
_0-6_
  6
CONTINUOUS
 62
    7
 10
9217.6113837925349
 20
14109.265271971667
 11
9217.6113837925349
 21
14005.076365371507
  0
LINE
  8
_0-6_
  6
CONTINUOUS
 62
    7
 10
9217.6113837925349
 20
15359.265271971667
 11
9217.6113837925349
 21
15255.076365371507
  0
LINE
  8
_0-6_
  6
CONTINUOUS
 62
    7
 10
9217.6113837925349
 20
15109.265271971667
 11
9217.6113837925349
 21
15005.076365371507
  0
LINE
  8
_0-6_
  6
CONTINUOUS
 62
    7
 10
9217.6113837925349
 20
14859.265271971667
 11
9217.6113837925349
 21
14755.076365371507
  0
LINE
  8
_0-6_
  6
CONTINUOUS
 62
    7
 10
9020.6498331900929
 20
15793.994907505049
 11
9020.6498331900929
 21
15620.346729838121
  0
LINE
  8
_0-6_
  6
CONTINUOUS
 62
    7
 10
9020.6498331900929
 20
16343.994907505049
 11
9020.6498331900929
 21
16170.346729838121
  0
LINE
  8
_0-6_
  6
CONTINUOUS
 62
    7
 10
9217.6113837925349
 20
17059.265271971664
 11
9217.6113837925349
 21
16955.076365371507
  0
LINE
  8
_0-6_
  6
CONTINUOUS
 62
    7
 10
9217.6113837925349
 20
16759.265271971667
 11
9217.6113837925349
 21
16655.076365371507
  0
LINE
  8
_0-6_
  6
CONTINUOUS
 62
    7
 10
9217.6113837925349
 20
17609.265271971664
 11
9217.6113837925349
 21
17505.076365371507
  0
LINE
  8
_0-6_
  6
CONTINUOUS
 62
    7
 10
9217.6113837925349
 20
17359.265271971664
 11
9217.6113837925349
 21
17255.076365371507
  0
LINE
  8
_0-6_
  6
CONTINUOUS
 62
    7
 10
9020.6498331900929
 20
18068.994907505049
 11
9020.6498331900929
 21
17895.346729838121
  0
LINE
  8
_0-6_
  6
CONTINUOUS
 62
    7
 10
9217.6113837925349
 20
17859.265271971664
 11
9217.6113837925349
 21
17755.076365371507
  0
LINE
  8
_0-6_
  6
CONTINUOUS
 62
    7
 10
9020.6498331900929
 20
18718.994907505053
 11
9020.6498331900929
 21
18545.346729838121
  0
LINE
  8
_0-6_
  6
CONTINUOUS
 62
    7
 10
9217.6113837925349
 20
19709.265271971664
 11
9217.6113837925349
 21
19605.076365371507
  0
LINE
  8
_0-6_
  6
CONTINUOUS
 62
    7
 10
9217.6113837925349
 20
19459.265271971664
 11
9217.6113837925349
 21
19355.076365371507
  0
LINE
  8
_0-6_
  6
CONTINUOUS
 62
    7
 10
9217.6113837925349
 20
19209.265271971664
 11
9217.6113837925349
 21
19105.076365371507
  0
LINE
  8
_0-6_
  6
CONTINUOUS
 62
    7
 10
9217.6113837925349
 20
20459.265271971664
 11
9217.6113837925349
 21
20355.076365371507
  0
LINE
  8
_0-6_
  6
CONTINUOUS
 62
    7
 10
9217.6113837925349
 20
20209.265271971664
 11
9217.6113837925349
 21
20105.076365371507
  0
LINE
  8
_0-6_
  6
CONTINUOUS
 62
    7
 10
9217.6113837925349
 20
19959.265271971664
 11
9217.6113837925349
 21
19855.076365371507
  0
LINE
  8
_0-6_
  6
CONTINUOUS
 62
    7
 10
9217.6113837925349
 20
20959.265271971664
 11
9217.6113837925349
 21
20855.076365371507
  0
LINE
  8
_0-6_
  6
CONTINUOUS
 62
    7
 10
9020.6498331900929
 20
20743.994907505053
 11
9020.6498331900929
 21
20570.346729838121
  0
LINE
  8
_0-6_
  6
CONTINUOUS
 62
    7
 10
9020.6498331900929
 20
21243.994907505053
 11
9020.6498331900929
 21
21070.346729838121
  0
LINE
  8
_0-6_
  6
CONTINUOUS
 62
    7
 10
9217.6113837925349
 20
22359.265271971664
 11
9217.6113837925349
 21
22255.076365371507
  0
LINE
  8
_0-6_
  6
CONTINUOUS
 62
    7
 10
9217.6113837925349
 20
21959.265271971664
 11
9217.6113837925349
 21
21855.076365371507
  0
LINE
  8
_0-6_
  6
CONTINUOUS
 62
    7
 10
9217.6113837925349
 20
23005.076365371507
 11
9217.6113837925349
 21
23109.265271971664
  0
LINE
  8
_0-6_
  6
CONTINUOUS
 62
    7
 10
9217.6113837925349
 20
22859.265271971664
 11
9217.6113837925349
 21
22755.076365371507
  0
LINE
  8
_0-6_
  6
CONTINUOUS
 62
    7
 10
9217.6113837925349
 20
22609.265271971664
 11
9217.6113837925349
 21
22505.076365371507
  0
SOLID
  8
_0-6_
  6
CONTINUOUS
 62
    7
 10
9217.6113837925349
 20
23109.265271971664
 11
9217.6113837925349
 21
23005.076365371507
 12
9217.6113837925349
 22
23109.265271971664
 13
9513.0537096961961
 23
23057.170818671584
  0
SOLID
  8
_0-6_
  6
CONTINUOUS
 62
    7
 10
9217.6113837925349
 20
22859.265271971664
 11
9217.6113837925349
 21
22755.076365371507
 12
9217.6113837925349
 22
22859.265271971664
 13
9513.0537096961961
 23
22807.170818671584
  0
SOLID
  8
_0-6_
  6
CONTINUOUS
 62
    7
 10
9217.6113837925349
 20
22609.265271971664
 11
9217.6113837925349
 21
22505.076365371507
 12
9217.6113837925349
 22
22609.265271971664
 13
9513.0537096961961
 23
22557.170818671584
  0
SOLID
  8
_0-6_
  6
CONTINUOUS
 62
    7
 10
9217.6113837925349
 20
22359.265271971664
 11
9217.6113837925349
 21
22255.076365371507
 12
9217.6113837925349
 22
22359.265271971664
 13
9513.0537096961961
 23
22307.170818671584
  0
SOLID
  8
_0-6_
  6
CONTINUOUS
 62
    7
 10
9217.6113837925349
 20
21959.265271971664
 11
9217.6113837925349
 21
21855.076365371507
 12
9217.6113837925349
 22
21959.265271971664
 13
9513.0537096961961
 23
21907.170818671584
  0
SOLID
  8
_0-6_
  6
CONTINUOUS
 62
    7
 10
9020.6498331900929
 20
21243.994907505053
 11
9020.6498331900929
 21
21070.346729838121
 12
9020.6498331900929
 22
21243.994907505053
 13
9513.0537096961961
 23
21157.170818671584
  0
SOLID
  8
_0-6_
  6
CONTINUOUS
 62
    7
 10
9217.6113837925349
 20
20959.265271971664
 11
9217.6113837925349
 21
20855.076365371507
 12
9217.6113837925349
 22
20959.265271971664
 13
9513.0537096961961
 23
20907.170818671584
  0
SOLID
  8
_0-6_
  6
CONTINUOUS
 62
    7
 10
9020.6498331900929
 20
20743.994907505053
 11
9020.6498331900929
 21
20570.346729838121
 12
9020.6498331900929
 22
20743.994907505053
 13
9513.0537096961961
 23
20657.170818671584
  0
SOLID
  8
_0-6_
  6
CONTINUOUS
 62
    7
 10
9217.6113837925349
 20
20459.265271971664
 11
9217.6113837925349
 21
20355.076365371507
 12
9217.6113837925349
 22
20459.265271971664
 13
9513.0537096961961
 23
20407.170818671584
  0
SOLID
  8
_0-6_
  6
CONTINUOUS
 62
    7
 10
9217.6113837925349
 20
20209.265271971664
 11
9217.6113837925349
 21
20105.076365371507
 12
9217.6113837925349
 22
20209.265271971664
 13
9513.0537096961961
 23
20157.170818671584
  0
SOLID
  8
_0-6_
  6
CONTINUOUS
 62
    7
 10
9217.6113837925349
 20
19959.265271971664
 11
9217.6113837925349
 21
19855.076365371507
 12
9217.6113837925349
 22
19959.265271971664
 13
9513.0537096961961
 23
19907.170818671584
  0
SOLID
  8
_0-6_
  6
CONTINUOUS
 62
    7
 10
9217.6113837925349
 20
19709.265271971664
 11
9217.6113837925349
 21
19605.076365371507
 12
9217.6113837925349
 22
19709.265271971664
 13
9513.0537096961961
 23
19657.170818671584
  0
SOLID
  8
_0-6_
  6
CONTINUOUS
 62
    7
 10
9217.6113837925349
 20
19459.265271971664
 11
9217.6113837925349
 21
19355.076365371507
 12
9217.6113837925349
 22
19459.265271971664
 13
9513.0537096961961
 23
19407.170818671584
  0
SOLID
  8
_0-6_
  6
CONTINUOUS
 62
    7
 10
9217.6113837925349
 20
19209.265271971664
 11
9217.6113837925349
 21
19105.076365371507
 12
9217.6113837925349
 22
19209.265271971664
 13
9513.0537096961961
 23
19157.170818671584
  0
SOLID
  8
_0-6_
  6
CONTINUOUS
 62
    7
 10
9020.6498331900929
 20
18718.994907505053
 11
9020.6498331900929
 21
18545.346729838121
 12
9020.6498331900929
 22
18718.994907505053
 13
9513.0537096961961
 23
18632.170818671584
  0
SOLID
  8
_0-6_
  6
CONTINUOUS
 62
    7
 10
9020.6498331900929
 20
18068.994907505049
 11
9020.6498331900929
 21
17895.346729838121
 12
9020.6498331900929
 22
18068.994907505049
 13
9513.0537096961961
 23
17982.170818671584
  0
SOLID
  8
_0-6_
  6
CONTINUOUS
 62
    7
 10
9217.6113837925349
 20
17859.265271971664
 11
9217.6113837925349
 21
17755.076365371507
 12
9217.6113837925349
 22
17859.265271971664
 13
9513.0537096961961
 23
17807.170818671584
  0
SOLID
  8
_0-6_
  6
CONTINUOUS
 62
    7
 10
9217.6113837925349
 20
17609.265271971664
 11
9217.6113837925349
 21
17505.076365371507
 12
9217.6113837925349
 22
17609.265271971664
 13
9513.0537096961961
 23
17557.170818671584
  0
SOLID
  8
_0-6_
  6
CONTINUOUS
 62
    7
 10
9217.6113837925349
 20
17359.265271971664
 11
9217.6113837925349
 21
17255.076365371507
 12
9217.6113837925349
 22
17359.265271971664
 13
9513.0537096961961
 23
17307.170818671584
  0
SOLID
  8
_0-6_
  6
CONTINUOUS
 62
    7
 10
9217.6113837925349
 20
17059.265271971664
 11
9217.6113837925349
 21
16955.076365371507
 12
9217.6113837925349
 22
17059.265271971664
 13
9513.0537096961961
 23
17007.170818671584
  0
SOLID
  8
_0-6_
  6
CONTINUOUS
 62
    7
 10
9217.6113837925349
 20
16759.265271971667
 11
9217.6113837925349
 21
16655.076365371507
 12
9217.6113837925349
 22
16759.265271971667
 13
9513.0537096961961
 23
16707.170818671584
  0
SOLID
  8
_0-6_
  6
CONTINUOUS
 62
    7
 10
9020.6498331900929
 20
16343.994907505049
 11
9020.6498331900929
 21
16170.346729838121
 12
9020.6498331900929
 22
16170.346729838121
 13
9020.6498331900929
 23
16170.346729838121
  0
SOLID
  8
_0-6_
  6
CONTINUOUS
 62
    7
 10
9020.6498331900929
 20
16343.994907505049
 11
9020.6498331900929
 21
16170.346729838121
 12
9020.6498331900929
 22
16343.994907505049
 13
9513.0537096961961
 23
16257.170818671585
  0
SOLID
  8
_0-6_
  6
CONTINUOUS
 62
    7
 10
9020.6498331900929
 20
15793.994907505049
 11
9020.6498331900929
 21
15620.346729838121
 12
9020.6498331900929
 22
15793.994907505049
 13
9513.0537096961961
 23
15707.170818671585
  0
SOLID
  8
_0-6_
  6
CONTINUOUS
 62
    7
 10
9217.6113837925349
 20
15359.265271971667
 11
9217.6113837925349
 21
15255.076365371507
 12
9217.6113837925349
 22
15359.265271971667
 13
9513.0537096961961
 23
15307.170818671585
  0
SOLID
  8
_0-6_
  6
CONTINUOUS
 62
    7
 10
9217.6113837925349
 20
15109.265271971667
 11
9217.6113837925349
 21
15005.076365371507
 12
9217.6113837925349
 22
15109.265271971667
 13
9513.0537096961961
 23
15057.170818671585
  0
SOLID
  8
_0-6_
  6
CONTINUOUS
 62
    7
 10
9217.6113837925349
 20
14859.265271971667
 11
9217.6113837925349
 21
14755.076365371507
 12
9217.6113837925349
 22
14859.265271971667
 13
9513.0537096961961
 23
14807.170818671585
  0
SOLID
  8
_0-6_
  6
CONTINUOUS
 62
    7
 10
9217.6113837925349
 20
14609.265271971667
 11
9217.6113837925349
 21
14505.076365371507
 12
9217.6113837925349
 22
14609.265271971667
 13
9513.0537096961961
 23
14557.170818671585
  0
SOLID
  8
_0-6_
  6
CONTINUOUS
 62
    7
 10
9217.6113837925349
 20
14359.265271971667
 11
9217.6113837925349
 21
14255.076365371507
 12
9217.6113837925349
 22
14255.076365371507
 13
9217.6113837925349
 23
14255.076365371507
  0
SOLID
  8
_0-6_
  6
CONTINUOUS
 62
    7
 10
9217.6113837925349
 20
14359.265271971667
 11
9217.6113837925349
 21
14255.076365371507
 12
9217.6113837925349
 22
14359.265271971667
 13
9513.0537096961961
 23
14307.170818671585
  0
SOLID
  8
_0-6_
  6
CONTINUOUS
 62
    7
 10
9217.6113837925349
 20
14109.265271971667
 11
9217.6113837925349
 21
14005.076365371507
 12
9217.6113837925349
 22
14109.265271971667
 13
9513.0537096961961
 23
14057.170818671585
  0
SOLID
  8
_0-6_
  6
CONTINUOUS
 62
    7
 10
9020.6498331900929
 20
13618.994907505051
 11
9020.6498331900929
 21
13445.346729838121
 12
9020.6498331900929
 22
13618.994907505051
 13
9513.0537096961961
 23
13532.170818671585
  0
SOLID
  8
_0-6_
  6
CONTINUOUS
 62
    7
 10
9020.6498331900929
 20
12968.994907505051
 11
9020.6498331900929
 21
12795.346729838121
 12
9020.6498331900929
 22
12968.994907505051
 13
9513.0537096961961
 23
12882.170818671585
  0
SOLID
  8
_0-6_
  6
CONTINUOUS
 62
    7
 10
9217.6113837925349
 20
12759.265271971666
 11
9217.6113837925349
 21
12655.076365371505
 12
9217.6113837925349
 22
12759.265271971666
 13
9513.0537096961961
 23
12707.170818671585
  0
SOLID
  8
_0-6_
  6
CONTINUOUS
 62
    7
 10
9217.6113837925349
 20
12509.265271971666
 11
9217.6113837925349
 21
12405.076365371505
 12
9217.6113837925349
 22
12509.265271971666
 13
9513.0537096961961
 23
12457.170818671585
  0
SOLID
  8
_0-6_
  6
CONTINUOUS
 62
    7
 10
9217.6113837925349
 20
12259.265271971666
 11
9217.6113837925349
 21
12155.076365371505
 12
9217.6113837925349
 22
12259.265271971666
 13
9513.0537096961961
 23
12207.170818671585
  0
SOLID
  8
_0-6_
  6
CONTINUOUS
 62
    7
 10
9217.6113837925349
 20
12009.265271971666
 11
9217.6113837925349
 21
11905.076365371505
 12
9217.6113837925349
 22
12009.265271971666
 13
9513.0537096961961
 23
11957.170818671585
  0
SOLID
  8
_0-6_
  6
CONTINUOUS
 62
    7
 10
9217.6113837925349
 20
11759.265271971666
 11
9217.6113837925349
 21
11655.076365371505
 12
9217.6113837925349
 22
11759.265271971666
 13
9513.0537096961961
 23
11707.170818671585
  0
SOLID
  8
_0-6_
  6
CONTINUOUS
 62
    7
 10
9020.6498331900929
 20
11268.994907505049
 11
9020.6498331900929
 21
11095.346729838121
 12
9020.6498331900929
 22
11095.346729838121
 13
9020.6498331900929
 23
11095.346729838121
  0
SOLID
  8
_0-6_
  6
CONTINUOUS
 62
    7
 10
9020.6498331900929
 20
11268.994907505049
 11
9020.6498331900929
 21
11095.346729838121
 12
9020.6498331900929
 22
11268.994907505049
 13
9513.0537096961961
 23
11182.170818671585
  0
SOLID
  8
_0-6_
  6
CONTINUOUS
 62
    7
 10
9020.6498331900929
 20
10618.994907505049
 11
9020.6498331900929
 21
10445.34672983812
 12
9020.6498331900929
 22
10618.994907505049
 13
9513.0537096961961
 23
10532.170818671585
  0
SOLID
  8
_0-6_
  6
CONTINUOUS
 62
    7
 10
9217.6113837925349
 20
10409.265271971666
 11
9217.6113837925349
 21
10305.076365371505
 12
9217.6113837925349
 22
10409.265271971666
 13
9513.0537096961961
 23
10357.170818671585
  0
SOLID
  8
_0-6_
  6
CONTINUOUS
 62
    7
 10
9217.6113837925349
 20
10159.265271971666
 11
9217.6113837925349
 21
10055.076365371505
 12
9217.6113837925349
 22
10159.265271971666
 13
9513.0537096961961
 23
10107.170818671585
  0
LINE
  8
_0-6_
  6
CONTINUOUS
 62
    7
 10
9217.6113837925349
 20
9909.2652719716661
 11
9217.6113837925349
 21
9805.0763653715057
  0
LINE
  8
_0-6_
  6
CONTINUOUS
 62
    7
 10
9217.6113837925349
 20
9659.2652719716625
 11
9217.6113837925349
 21
9555.0763653715057
  0
SOLID
  8
_0-6_
  6
CONTINUOUS
 62
    7
 10
9217.6113837925349
 20
9909.2652719716661
 11
9217.6113837925349
 21
9805.0763653715057
 12
9217.6113837925349
 22
9909.2652719716661
 13
9513.0537096961961
 23
9857.1708186715859
  0
SOLID
  8
_0-6_
  6
CONTINUOUS
 62
    7
 10
9217.6113837925349
 20
9659.2652719716625
 11
9217.6113837925349
 21
9555.0763653715057
 12
9217.6113837925349
 22
9659.2652719716625
 13
9513.0537096961961
 23
9607.1708186715859
  0
LINE
  8
_0-6_
  6
CONTINUOUS
 62
    7
 10
9217.6113837925349
 20
9359.2652719716625
 11
9217.6113837925349
 21
9255.0763653715057
  0
SOLID
  8
_0-6_
  6
CONTINUOUS
 62
    7
 10
9217.6113837925349
 20
9359.2652719716625
 11
9217.6113837925349
 21
9255.0763653715057
 12
9217.6113837925349
 22
9359.2652719716625
 13
9513.0537096961961
 23
9307.1708186715859
  0
LINE
  8
_0-a_
  6
CONTINUOUS
 62
    7
 10
29971.043800279523
 20
9907.1711533044872
 11
28861.043800279527
 21
12607.171153304487
  0
LINE
  8
_0-a_
  6
CONTINUOUS
 62
    7
 10
28861.043800279527
 20
12607.171153304487
 11
28531.043800279523
 21
14107.171153304489
  0
LINE
  8
_0-a_
  6
CONTINUOUS
 62
    7
 10
28531.043800279523
 20
14107.171153304489
 11
27301.06397844883
 21
16297.171153304487
  0
LINE
  8
_0-a_
  6
CONTINUOUS
 62
    7
 10
27301.06397844883
 20
16297.171153304487
 11
26911.043800279527
 21
17747.171153304487
  0
LINE
  8
_0-a_
  6
CONTINUOUS
 62
    7
 10
26911.043800279527
 20
17747.171153304487
 11
26071.043800279523
 21
18907.182547319171
  0
LINE
  8
_0-a_
  6
CONTINUOUS
 62
    7
 10
26071.043800279523
 20
18907.182547319171
 11
26071.043800279523
 21
19057.182547319171
  0
LINE
  8
_0-a_
  6
CONTINUOUS
 62
    7
 10
29971.043800279523
 20
9907.1711533044872
 11
30457.543800279523
 21
9907.1711533044872
  0
LINE
  8
_0-a_
  6
CONTINUOUS
 62
    7
 10
10384.543800279525
 20
9907.190972056007
 11
10871.043800279523
 21
9907.190972056007
  0
LINE
  8
_0-a_
  6
CONTINUOUS
 62
    7
 10
10871.043800279523
 20
9907.190972056007
 11
11981.043800279523
 21
12607.190972056007
  0
LINE
  8
_0-a_
  6
CONTINUOUS
 62
    7
 10
11981.043800279523
 20
12607.190972056007
 11
12311.043800279525
 21
14107.190972056008
  0
LINE
  8
_0-a_
  6
CONTINUOUS
 62
    7
 10
12311.043800279525
 20
14107.190972056008
 11
13541.043800279527
 21
16507.190972056007
  0
LINE
  8
_0-a_
  6
CONTINUOUS
 62
    7
 10
13541.043800279527
 20
16507.190972056007
 11
13931.068214382947
 21
17747.190972056007
  0
LINE
  8
_0-a_
  6
CONTINUOUS
 62
    7
 10
13931.068214382947
 20
17747.190972056007
 11
14771.043800279523
 21
18907.190972056007
  0
LINE
  8
_0-a_
  6
CONTINUOUS
 62
    7
 10
14771.043800279523
 20
18907.190972056007
 11
14771.043800279523
 21
19057.190972056007
  0
LINE
  8
_0-a_
  6
CONTINUOUS
 62
    7
 10
20421.043800279527
 20
19457.182547319171
 11
26096.043800279523
 21
19457.182547319171
  0
LINE
  8
_0-a_
  6
CONTINUOUS
 62
    7
 10
20421.043800279527
 20
19457.182547319171
 11
14746.043800279523
 21
19457.182547319171
  0
LINE
  8
_0-a_
  6
CONTINUOUS
 62
    7
 10
26096.043800279523
 20
19457.182547319171
 11
26096.043800279523
 21
19157.182547319171
  0
LINE
  8
_0-a_
  6
CONTINUOUS
 62
    7
 10
14746.043800279523
 20
19457.182547319171
 11
14746.043800279523
 21
19157.182547319171
  0
LINE
  8
_0-a_
  6
CONTINUOUS
 62
    7
 10
26096.043800279523
 20
19157.182547319171
 11
25821.043800279523
 21
19157.182547319171
  0
LINE
  8
_0-a_
  6
CONTINUOUS
 62
    7
 10
25821.043800279523
 20
19157.182547319171
 11
25821.043800279523
 21
18982.182547319171
  0
LINE
  8
_0-a_
  6
CONTINUOUS
 62
    7
 10
25821.043800279523
 20
18982.182547319171
 11
25521.043800279527
 21
18982.182547319171
  0
LINE
  8
_0-a_
  6
CONTINUOUS
 62
    7
 10
14746.043800279523
 20
19157.182547319171
 11
15021.043800279525
 21
19157.182547319171
  0
LINE
  8
_0-a_
  6
CONTINUOUS
 62
    7
 10
15021.043800279525
 20
19157.182547319171
 11
15021.043800279525
 21
18982.182547319171
  0
LINE
  8
_0-a_
  6
CONTINUOUS
 62
    7
 10
15021.043800279525
 20
18982.182547319171
 11
15321.043800279525
 21
18982.182547319171
  0
LINE
  8
_0-a_
  6
CONTINUOUS
 62
    7
 10
15321.043800279525
 20
18982.182547319171
 11
16521.043800279527
 21
19282.182547319171
  0
LINE
  8
_0-a_
  6
CONTINUOUS
 62
    7
 10
16521.043800279527
 20
19282.182547319171
 11
17721.043800279527
 21
18982.182547319171
  0
LINE
  8
_0-a_
  6
CONTINUOUS
 62
    7
 10
17721.043800279527
 20
18982.182547319171
 11
19071.043800279523
 21
19282.182547319171
  0
LINE
  8
_0-a_
  6
CONTINUOUS
 62
    7
 10
19071.043800279523
 20
19282.182547319171
 11
20421.043800279527
 21
18982.182547319171
  0
LINE
  8
_0-a_
  6
CONTINUOUS
 62
    7
 10
20421.043800279527
 20
18982.182547319171
 11
21771.043800279527
 21
19282.182547319171
  0
LINE
  8
_0-a_
  6
CONTINUOUS
 62
    7
 10
21771.043800279527
 20
19282.182547319171
 11
23121.043800279527
 21
18982.182547319171
  0
LINE
  8
_0-a_
  6
CONTINUOUS
 62
    7
 10
23121.043800279527
 20
18982.182547319171
 11
24321.043800279527
 21
19282.182547319171
  0
LINE
  8
_0-a_
  6
CONTINUOUS
 62
    7
 10
24321.043800279527
 20
19282.182547319171
 11
25521.043800279527
 21
18982.182547319171
  0
LINE
  8
_0-a_
  6
CONTINUOUS
 62
    7
 10
26071.043800279523
 20
19057.182547319171
 11
26741.043800279519
 21
19057.182547319171
  0
LINE
  8
_0-a_
  6
CONTINUOUS
 62
    7
 10
26741.043800279519
 20
19057.182547319171
 11
30457.543800279523
 21
9907.1711533044872
  0
LINE
  8
_0-a_
  6
CONTINUOUS
 62
    7
 10
14771.043800279523
 20
19057.190972056007
 11
14101.043800279523
 21
19057.190972056007
  0
LINE
  8
_0-a_
  6
CONTINUOUS
 62
    7
 10
14101.043800279523
 20
19057.190972056007
 11
10384.543800279525
 21
9907.190972056007
  0
LINE
  8
_0-7_
  6
CONTINUOUS
 62
    7
 10
5976.0575791837081
 20
1157.1915965469656
 11
5996.0546994554815
 21
1157.1915965469656
  0
LINE
  8
_0-7_
  6
CONTINUOUS
 62
    7
 10
5976.0773979352161
 20
7147.1813242594807
 11
5996.074518206984
 21
7147.1813242594807
  0
LINE
  8
_0-7_
  6
CONTINUOUS
 62
    7
 10
5976.0773979352161
 20
5842.1759936987373
 11
5996.074518206984
 21
5842.1759936987373
  0
LINE
  8
_0-7_
  6
CONTINUOUS
 62
    7
 10
31716.06738487041
 20
26279.639195862262
 11
31755.808936332239
 21
26279.639195862262
  0
LINE
  8
_0-7_
  6
CONTINUOUS
 62
    7
 10
28886.276678898662
 20
26279.639195862262
 11
28926.047958487743
 21
26279.639195862262
  0
LINE
  8
_0-7_
  6
CONTINUOUS
 62
    7
 10
10241.062813125101
 20
26279.678833365265
 11
10301.08390206771
 21
26279.678833365265
  0
LINE
  8
_0-7_
  6
CONTINUOUS
 62
    7
 10
40358.564131625869
 20
26402.138898934474
 11
40346.063454112081
 21
26402.138898934474
  0
LINE
  8
_0-4_
  6
dotted
 62
    4
 10
20421.053709696188
 20
9795.1708186715841
 11
20421.053709696188
 21
24339.170818671584
  0
LINE
  8
_0-4_
  6
dotted
 62
    4
 10
22239.053709696192
 20
9795.1708186715841
 11
22239.053709696192
 21
24339.170818671584
  0
LINE
  8
_0-4_
  6
dotted
 62
    4
 10
24057.053709696192
 20
9795.1708186715841
 11
24057.053709696192
 21
24339.170818671584
  0
LINE
  8
_0-4_
  6
dotted
 62
    4
 10
25875.053709696192
 20
9795.1708186715841
 11
25875.053709696192
 21
24339.170818671584
  0
LINE
  8
_0-4_
  6
dotted
 62
    4
 10
27693.053709696192
 20
9795.1708186715841
 11
27693.053709696192
 21
24339.170818671584
  0
LINE
  8
_0-4_
  6
dotted
 62
    4
 10
29511.053709696188
 20
9795.1708186715841
 11
29511.053709696188
 21
24339.170818671584
  0
LINE
  8
_0-4_
  6
dotted
 62
    4
 10
31329.053709696188
 20
9795.1708186715841
 11
31329.053709696188
 21
24339.170818671584
  0
LINE
  8
_0-4_
  6
dotted
 62
    4
 10
33147.053709696192
 20
9795.1708186715841
 11
33147.053709696192
 21
24339.170818671584
  0
LINE
  8
_0-4_
  6
dotted
 62
    4
 10
34965.053709696192
 20
9795.1708186715841
 11
34965.053709696192
 21
24339.170818671584
  0
LINE
  8
_0-4_
  6
dotted
 62
    4
 10
36783.053709696192
 20
9795.1708186715841
 11
36783.053709696192
 21
24339.170818671584
  0
LINE
  8
_0-4_
  6
dotted
 62
    4
 10
38601.053709696192
 20
9795.1708186715841
 11
38601.053709696192
 21
24339.170818671584
  0
LINE
  8
_0-4_
  6
dotted
 62
    4
 10
40419.053709696192
 20
9795.1708186715841
 11
40419.053709696192
 21
24339.170818671584
  0
LINE
  8
_0-4_
  6
dotted
 62
    4
 10
18603.053709696196
 20
9795.1708186715841
 11
18603.053709696196
 21
24339.170818671584
  0
LINE
  8
_0-4_
  6
dotted
 62
    4
 10
16785.053709696199
 20
9795.1708186715841
 11
16785.053709696199
 21
24339.170818671584
  0
LINE
  8
_0-4_
  6
dotted
 62
    4
 10
14967.053709696199
 20
9795.1708186715841
 11
14967.053709696199
 21
24339.170818671584
  0
LINE
  8
_0-4_
  6
dotted
 62
    4
 10
13149.053709696197
 20
9795.1708186715841
 11
13149.053709696197
 21
24339.170818671584
  0
LINE
  8
_0-4_
  6
dotted
 62
    4
 10
11331.053709696196
 20
9795.1708186715841
 11
11331.053709696196
 21
24339.170818671584
  0
LINE
  8
_0-4_
  6
dotted
 62
    4
 10
9513.0537096961961
 20
9795.1708186715841
 11
9513.0537096961961
 21
24339.170818671584
  0
LINE
  8
_0-4_
  6
dotted
 62
    4
 10
33147.053709696192
 20
9795.1708186715841
 11
33147.053709696192
 21
7977.1708186715841
  0
LINE
  8
_0-4_
  6
dotted
 62
    4
 10
31329.053709696188
 20
9795.1708186715841
 11
31329.053709696188
 21
7977.1708186715841
  0
LINE
  8
_0-4_
  6
dotted
 62
    4
 10
29511.053709696188
 20
9795.1708186715841
 11
29511.053709696188
 21
7977.1708186715841
  0
LINE
  8
_0-4_
  6
dotted
 62
    4
 10
11331.053709696196
 20
9795.1708186715841
 11
11331.053709696196
 21
7977.1708186715841
  0
LINE
  8
_0-4_
  6
dotted
 62
    4
 10
9513.0537096961961
 20
9795.1708186715841
 11
9513.0537096961961
 21
7977.1708186715841
  0
LINE
  8
_0-4_
  6
dotted
 62
    4
 10
13149.053709696197
 20
9795.1708186715841
 11
13149.053709696197
 21
7977.1708186715841
  0
LINE
  8
_0-4_
  6
dotted
 62
    4
 10
14967.053709696199
 20
9795.1708186715841
 11
14967.053709696199
 21
7977.1708186715841
  0
LINE
  8
_0-4_
  6
dotted
 62
    4
 10
16785.053709696199
 20
9795.1708186715841
 11
16785.053709696199
 21
7977.1708186715841
  0
LINE
  8
_0-4_
  6
dotted
 62
    4
 10
18603.053709696196
 20
9795.1708186715841
 11
18603.053709696196
 21
7977.1708186715841
  0
LINE
  8
_0-4_
  6
dotted
 62
    4
 10
20421.053709696188
 20
9795.1708186715841
 11
20421.053709696188
 21
7977.1708186715841
  0
LINE
  8
_0-4_
  6
dotted
 62
    4
 10
22239.053709696192
 20
9795.1708186715841
 11
22239.053709696192
 21
7977.1708186715841
  0
LINE
  8
_0-4_
  6
dotted
 62
    4
 10
24057.053709696192
 20
9795.1708186715841
 11
24057.053709696192
 21
7977.1708186715841
  0
LINE
  8
_0-4_
  6
dotted
 62
    4
 10
25875.053709696192
 20
9795.1708186715841
 11
25875.053709696192
 21
7977.1708186715841
  0
LINE
  8
_0-4_
  6
dotted
 62
    4
 10
27693.053709696192
 20
9795.1708186715841
 11
27693.053709696192
 21
7977.1708186715841
  0
LINE
  8
_0-4_
  6
dotted
 62
    4
 10
22239.053709696192
 20
24339.170818671584
 11
22239.053709696192
 21
24945.170818671584
  0
LINE
  8
_0-4_
  6
dotted
 62
    4
 10
24057.053709696192
 20
24339.170818671584
 11
24057.053709696192
 21
24945.170818671584
  0
LINE
  8
_0-4_
  6
dotted
 62
    4
 10
25875.053709696192
 20
24339.170818671584
 11
25875.053709696192
 21
24945.170818671584
  0
LINE
  8
_0-4_
  6
dotted
 62
    4
 10
27693.053709696192
 20
24339.170818671584
 11
27693.053709696192
 21
24945.170818671584
  0
LINE
  8
_0-4_
  6
dotted
 62
    4
 10
29511.053709696188
 20
24339.170818671584
 11
29511.053709696188
 21
24945.170818671584
  0
LINE
  8
_0-7_
  6
CONTINUOUS
 62
    7
 10
16711.057747678456
 20
1157.1816871712201
 11
24131.054626401826
 21
1157.1816871712201
  0
LINE
  8
_0-4_
  6
dotted
 62
    4
 10
31329.053709696188
 20
24339.170818671584
 11
31329.053709696188
 21
24945.170818671584
  0
LINE
  8
_0-4_
  6
dotted
 62
    4
 10
33147.053709696192
 20
24339.170818671584
 11
33147.053709696192
 21
24945.170818671584
  0
LINE
  8
_0-4_
  6
dotted
 62
    4
 10
18603.053709696196
 20
24339.170818671584
 11
18603.053709696196
 21
24945.170818671584
  0
LINE
  8
_0-4_
  6
dotted
 62
    4
 10
16785.053709696199
 20
24339.170818671584
 11
16785.053709696199
 21
24945.170818671584
  0
LINE
  8
_0-4_
  6
dotted
 62
    4
 10
14967.053709696199
 20
24339.170818671584
 11
14967.053709696199
 21
24945.170818671584
  0
LINE
  8
_0-4_
  6
dotted
 62
    4
 10
13149.053709696197
 20
24339.170818671584
 11
13149.053709696197
 21
24945.170818671584
  0
LINE
  8
_0-4_
  6
dotted
 62
    4
 10
11331.053709696196
 20
24339.170818671584
 11
11331.053709696196
 21
24945.170818671584
  0
LINE
  8
_0-4_
  6
dotted
 62
    4
 10
9513.0537096961961
 20
24339.170818671584
 11
9513.0537096961961
 21
24945.170818671584
  0
LINE
  8
_0-4_
  6
dotted
 62
    4
 10
34965.053709696192
 20
24339.170818671584
 11
34965.053709696192
 21
24945.170818671584
  0
LINE
  8
_0-4_
  6
dotted
 62
    4
 10
36783.053709696192
 20
24339.170818671584
 11
36783.053709696192
 21
24945.170818671584
  0
LINE
  8
_0-4_
  6
dotted
 62
    4
 10
38601.053709696192
 20
24339.170818671584
 11
38601.053709696192
 21
24945.170818671584
  0
LINE
  8
_0-4_
  6
dotted
 62
    4
 10
40419.053709696192
 20
24339.170818671584
 11
40419.053709696192
 21
24945.170818671584
  0
TEXT
  8
_0-6_
 62
    7
 10
7301.0234405741866
 20
9757.3644248821474
 40
200
 41
1
 50
0
  1
バトン　1
  0
TEXT
  8
_0-6_
 62
    7
 10
7300.6812611244013
 20
11604.962364028648
 40
200
 41
1
 50
0
  1
バトン　2
  0
TEXT
  8
_0-6_
 62
    7
 10
7301.8218592903676
 20
12108.27031473234
 40
200
 41
1
 50
0
  1
バトン　3
  0
TEXT
  8
_0-6_
 62
    7
 10
7302.2780985567578
 20
13958.548659568867
 40
200
 41
1
 50
0
  1
バトン　4
  0
TEXT
  8
_0-6_
 62
    7
 10
7302.2780985567578
 20
14207.199059750326
 40
200
 41
1
 50
0
  1
バトン　5
  0
TEXT
  8
_0-6_
 62
    7
 10
7299.9969022248196
 20
14458.130656263725
 40
200
 41
1
 50
0
  1
バトン　6
  0
TEXT
  8
_0-6_
 62
    7
 10
7301.3656200239784
 20
16607.017600951196
 40
200
 41
1
 50
0
  1
バトン　7
  0
TEXT
  8
_0-6_
 62
    7
 10
7301.3656200239784
 20
16908.135516767277
 40
200
 41
1
 50
0
  1
バトン　8
  0
TEXT
  8
_0-6_
 62
    7
 10
7303.6148292576681
 20
17206.304570665684
 40
200
 41
1
 50
0
  1
バトン　9
  0
TEXT
  8
_0-6_
 62
    7
 10
7300.9093807575936
 20
19057.022461454744
 40
200
 41
1
 50
0
  1
バトン　10
  0
TEXT
  8
_0-6_
 62
    7
 10
7300.9093807575936
 20
19307.954057968145
 40
200
 41
1
 50
0
  1
バトン　11
  0
TEXT
  8
_0-6_
 62
    7
 10
7300.9093807575936
 20
19558.885654481542
 40
200
 41
1
 50
0
  1
バトン　12
  0
TEXT
  8
_0-6_
 62
    7
 10
7300.9093807575936
 20
20308.030529890635
 40
200
 41
1
 50
0
  1
バトン　13
  0
TEXT
  8
_0-6_
 62
    7
 10
7300.9093807575936
 20
21807.232759241596
 40
200
 41
1
 50
0
  1
バトン　14
  0
TEXT
  8
_0-6_
 62
    7
 10
7300.9093807575936
 20
22208.723313663034
 40
200
 41
1
 50
0
  1
バトン　15
  0
TEXT
  8
_0-6_
 62
    7
 10
7300.9093807575936
 20
22708.305310357893
 40
200
 41
1
 50
0
  1
バトン　16
  0
TEXT
  8
_0-6_
 62
    7
 10
6290.3536631852548
 20
10920.592771338839
 40
200
 41
1
 50
0
  1
ライトブリッジ 1
  0
TEXT
  8
_0-6_
 62
    7
 10
6292.634859517193
 20
10594.381695871421
 40
200
 41
1
 50
0
  1
ボーダーライト 1
  0
TEXT
  8
_0-6_
 62
    7
 10
6292.634859517193
 20
13270.681232503417
 40
200
 41
1
 50
0
  1
ライトブリッジ 2
  0
TEXT
  8
_0-6_
 62
    7
 10
6292.634859517193
 20
12945.838874835164
 40
200
 41
1
 50
0
  1
ボーダーライト 2
  0
TEXT
  8
_0-6_
 62
    7
 10
6292.634859517193
 20
18045.453274887011
 40
200
 41
1
 50
0
  1
ボーダーライト 4
  0
LINE
  8
_0-7_
  6
DASHED1
 62
    7
 10
14003.538829136574
 20
6866.9441779334702
 11
15546.061987147402
 21
6481.3208204625707
  0
LINE
  8
_0-7_
  6
DASHED1
 62
    7
 10
13848.323322012198
 20
6246.0425119329274
 11
15390.851434710895
 21
5860.4092450862826
  0
LINE
  8
_0-7_
  6
CONTINUOUS
 62
    7
 10
12975.178496190983
 20
6194.2561142419835
 11
14003.538829136574
 21
5937.1672696775649
  0
LINE
  8
_0-7_
  6
CONTINUOUS
 62
    7
 10
12819.967943754476
 20
5573.3544482414426
 11
13848.323322012198
 21
5316.265603677024
  0
LINE
  8
_0-7_
  6
DASHED1
 62
    7
 10
14003.538829136574
 20
5937.1672696775649
 11
15546.061987147402
 21
5551.5340028309165
  0
LINE
  8
_0-7_
  6
DASHED1
 62
    7
 10
13848.323322012198
 20
5316.265603677024
 11
15390.851434710895
 21
4930.6323368303737
  0
LINE
  8
_0-7_
  6
CONTINUOUS
 62
    7
 10
12461.010716437887
 20
5393.0236282682899
 11
14003.538829136574
 21
5007.390361421656
  0
LINE
  8
_0-7_
  6
CONTINUOUS
 62
    7
 10
12305.780345249855
 20
4772.1417810192551
 11
13848.323322012198
 21
4386.4986047968586
  0
LINE
  8
_0-7_
  6
DASHED1
 62
    7
 10
14003.538829136574
 20
5007.390361421656
 11
15546.061987147402
 21
4621.7570945750057
  0
LINE
  8
_0-7_
  6
DASHED1
 62
    7
 10
13848.323322012198
 20
4386.4986047968586
 11
15390.831615959394
 21
4000.8752473259532
  0
LINE
  8
_0-7_
  6
DASHED1
 62
    7
 10
11791.612565496747
 20
3970.9489325485806
 11
15390.831615959394
 21
3071.1181578215614
  0
LINE
  8
_0-7_
  6
DASHED1
 62
    7
 10
11946.833027309005
 20
4591.830779797604
 11
15546.061987147402
 21
3692.0198238221046
  0
LINE
  8
_0-7_
  6
CONTINUOUS
 62
    7
 10
11432.675156931658
 20
3790.6181125754101
 11
14003.538829136574
 21
3147.8960011643353
  0
LINE
  8
_0-7_
  6
CONTINUOUS
 62
    7
 10
11277.434876367888
 20
3169.7164465748783
 11
13848.323322012198
 21
2526.9943351637948
  0
LINE
  8
_0-7_
  6
DASHED1
 62
    7
 10
14003.538829136574
 20
3147.8960011643353
 11
15546.061987147402
 21
2762.26273431769
  0
LINE
  8
_0-7_
  6
DASHED1
 62
    7
 10
13848.323322012198
 20
2526.9943351637948
 11
15390.831615959394
 21
2141.3610683171441
  0
LINE
  8
_0-7_
  6
CONTINUOUS
 62
    7
 10
10918.497467802804
 20
2989.4054453532335
 11
14003.538829136574
 21
2218.109183532681
  0
LINE
  8
_0-7_
  6
CONTINUOUS
 62
    7
 10
10763.257187239038
 20
2368.5037793526871
 11
13848.323322012198
 21
1597.237245659403
  0
LINE
  8
_0-7_
  6
DASHED1
 62
    7
 10
14003.538829136574
 20
2218.109183532681
 11
15546.061987147402
 21
1832.4858260617872
  0
LINE
  8
_0-7_
  6
DASHED1
 62
    7
 10
13848.323322012198
 20
1597.237245659403
 11
15390.831615959394
 21
1211.6039788127523
  0
LINE
  8
_0-7_
  6
CONTINUOUS
 62
    7
 10
10918.497467802804
 20
2059.6285370973018
 11
14003.538829136574
 21
1288.3620034040177
  0
LINE
  8
_0-7_
  6
CONTINUOUS
 62
    7
 10
10763.257187239038
 20
1438.7466898482784
 11
13848.323322012198
 21
667.4801561549998
  0
LINE
  8
_0-7_
  6
DASHED1
 62
    7
 10
14003.538829136574
 20
1288.3620034040177
 11
15546.061987147402
 21
902.72873655738976
  0
LINE
  8
_0-7_
  6
DASHED1
 62
    7
 10
16711.057747678456
 20
3017.1715162162145
 11
24131.054626401826
 21
3017.1715162162145
  0
LINE
  8
_0-7_
  6
DASHED1
 62
    7
 10
16711.057747678456
 20
3657.1784586706799
 11
24131.054626401826
 21
3657.1784586706799
  0
LINE
  8
_0-7_
  6
DASHED1
 62
    7
 10
25296.065250996503
 20
3692.0198238221046
 11
28895.299165522759
 21
4591.830779797604
  0
LINE
  8
_0-7_
  6
DASHED1
 62
    7
 10
25451.275803432996
 20
3071.1181578215614
 11
29050.514672647135
 21
3970.9291137970608
  0
SOLID
  8
_0-2_
  6
CONTINUOUS
 62
    7
 10
37681.075576306815
 20
26404.629111656413
 11
37681.075576306815
 21
25717.133481180633
 12
40346.063454112081
 22
25717.133481180633
 13
40346.063454112081
 23
25717.133481180633
  0
SOLID
  8
_0-2_
  6
CONTINUOUS
 62
    7
 10
37681.075576306815
 20
26404.629111656413
 11
40346.063454112081
 21
25717.133481180633
 12
40346.063454112081
 22
26279.629286486499
 13
40346.063454112081
 23
26279.629286486499
  0
SOLID
  8
_0-2_
  6
CONTINUOUS
 62
    7
 10
40346.063454112081
 20
26279.629286486499
 11
40346.063454112081
 21
26404.626152248751
 12
40221.071543037716
 22
26404.626152248751
 13
40221.071543037716
 23
26404.626152248751
  0
SOLID
  8
_0-2_
  6
CONTINUOUS
 62
    7
 10
40346.063454112081
 20
26279.629286486499
 11
40221.071543037716
 21
26404.626152248751
 12
37681.075576306815
 22
26404.629111656413
 13
37681.075576306815
 23
26404.629111656413
  0
SOLID
  8
_0-2_
  6
CONTINUOUS
 62
    7
 10
40221.071543037716
 20
26622.156768802789
 11
40346.063454112081
 21
26622.156768802789
 12
40221.071543037716
 22
26404.626152248751
 13
40346.063454112081
 23
26404.626152248751
  0
SOLID
  8
_0-2_
  6
CONTINUOUS
 62
    7
 10
31681.072424394784
 20
28857.147104510306
 11
31681.072424394784
 21
27917.18335797917
 12
40346.063454112081
 22
28857.147104510306
 13
40346.063454112081
 23
27917.18335797917
  0
SOLID
  8
_0-2_
  6
CONTINUOUS
 62
    7
 10
31681.072424394784
 20
27917.18335797917
 11
40221.071543037716
 21
27917.18335797917
 12
40346.063454112081
 22
27917.18335797917
 13
40346.063454112081
 23
27917.18335797917
  0
SOLID
  8
_0-2_
  6
CONTINUOUS
 62
    7
 10
40221.071543037716
 20
27917.18335797917
 11
40221.071543037716
 21
27822.162353873078
 12
40346.063454112081
 22
27917.18335797917
 13
40346.063454112081
 23
27822.162353873078
  0
LINE
  8
_0-7_
  6
CONTINUOUS
 62
    7
 10
8150.2892905389671
 20
26594.188574473151
 11
7250.2900564241372
 21
26594.188574473151
  0
ARC
  8
_0-7_
  6
CONTINUOUS
 62
    7
 10
8150.2892905389671
 20
26594.188574473151
 40
899.99923411483177
 50
90
 51
180
  0
LINE
  8
_0-7_
  6
CONTINUOUS
 62
    7
 10
8010.2995392607681
 20
27534.182049131552
 11
8150.2892905389671
 21
27534.182049131552
  0
SOLID
  8
_0-2_
  6
CONTINUOUS
 62
    7
 10
8150.2892905389671
 20
27534.182049131552
 11
8150.2892905389671
 21
27494.187808587979
 12
8336.0745087807154
 22
27534.182049131552
 13
8336.0745087807154
 23
27492.140503758451
  0
SOLID
  8
_0-2_
  6
CONTINUOUS
 62
    7
 10
8010.2995392607681
 20
28022.163284718124
 11
8010.2995392607681
 21
27534.182049131552
 12
8336.0745087807154
 22
28022.163284718124
 13
8336.0745087807154
 23
27534.182049131552
  0
SOLID
  8
_0-2_
  6
CONTINUOUS
 62
    7
 10
8010.2995392607681
 20
27534.182049131552
 11
8151.0664634516333
 21
27532.134744302027
 12
8336.0745087807154
 22
27534.182049131552
 13
8336.0745087807154
 23
27534.182049131552
  0
SOLID
  8
_0-2_
  6
CONTINUOUS
 62
    7
 10
8010.2995392607681
 20
28147.179969231867
 11
8010.2995392607681
 21
28022.163284718124
 12
8961.0984750949719
 22
28147.179969231867
 13
8961.0984750949719
 23
28022.163284718124
  0
SOLID
  8
_0-2_
  6
CONTINUOUS
 62
    7
 10
8010.2995392607681
 20
28022.163284718124
 11
8336.0745087807154
 21
28022.163284718124
 12
8961.0984750949719
 22
28022.163284718124
 13
8961.0984750949719
 23
28022.163284718124
  0
SOLID
  8
_0-2_
  6
CONTINUOUS
 62
    7
 10
8010.2995392607681
 20
28147.179969231867
 11
8961.0984750949719
 21
28147.179969231867
 12
11131.093215231321
 22
28147.179969231867
 13
11131.093215231321
 23
28147.179969231867
  0
SOLID
  8
_0-2_
  6
CONTINUOUS
 62
    7
 10
40346.063454112081
 20
26402.138898934474
 11
40358.564131625869
 21
26402.138898934474
 12
40346.063454112081
 22
26402.138898934474
 13
40346.063454112081
 23
25717.133481180633
  0
LINE
  8
_0-7_
  6
CONTINUOUS
 62
    7
 10
40346.063454112081
 20
27822.162353873078
 11
40346.063454112081
 21
26622.156768802789
  0
LINE
  8
_0-7_
  6
CONTINUOUS
 62
    7
 10
36321.064823279077
 20
26404.630696236188
 11
36321.064823279077
 21
25717.133481180633
  0
LINE
  8
_0-7_
  6
CONTINUOUS
 62
    7
 10
36801.064823279077
 20
26404.630136977164
 11
36801.064823279077
 21
25717.133481180633
  0
SOLID
  8
_0-2_
  6
CONTINUOUS
 62
    7
 10
35681.071222544211
 20
26404.63144190744
 11
36321.064823279077
 21
26404.630696236188
 12
35681.071222544211
 22
25717.133481180633
 13
36321.064823279077
 23
25717.133481180633
  0
SOLID
  8
_0-2_
  6
CONTINUOUS
 62
    7
 10
36801.064823279077
 20
26404.630136977164
 11
36861.064823279077
 21
26404.630067069781
 12
36801.064823279077
 22
25717.133481180633
 13
36861.064823279077
 23
25717.133481180633
  0
LINE
  8
_0-7_
  6
CONTINUOUS
 62
    7
 10
36361.064823279077
 20
26364.630421370726
 11
36361.064823279077
 21
26264.630421370726
  0
LINE
  8
_0-7_
  6
CONTINUOUS
 62
    7
 10
36761.064823279077
 20
26364.630421370726
 11
36761.064823279077
 21
26264.630421370726
  0
LINE
  8
_0-7_
  6
CONTINUOUS
 62
    7
 10
36361.064823279077
 20
25757.13348118063
 11
36361.064823279077
 21
25857.13348118063
  0
LINE
  8
_0-7_
  6
CONTINUOUS
 62
    7
 10
36761.064823279077
 20
25757.13348118063
 11
36761.064823279077
 21
25857.13348118063
  0
LINE
  8
_0-7_
  6
CONTINUOUS
 62
    7
 10
36556.975938853393
 20
26364.630421370726
 11
36321.064823279077
 21
26364.630421370726
  0
LINE
  8
_0-7_
  6
CONTINUOUS
 62
    7
 10
36361.064823279077
 20
26264.630421370726
 11
36321.064823279077
 21
26264.630421370726
  0
LINE
  8
_0-7_
  6
CONTINUOUS
 62
    7
 10
36761.064823279077
 20
26264.630421370726
 11
36801.064823279077
 21
26264.630421370726
  0
LINE
  8
_0-7_
  6
CONTINUOUS
 62
    7
 10
36556.975938853393
 20
26364.630421370726
 11
36801.064823279077
 21
26364.630421370726
  0
LINE
  8
_0-7_
  6
CONTINUOUS
 62
    7
 10
36761.064823279077
 20
25857.13348118063
 11
36801.064823279077
 21
25857.13348118063
  0
LINE
  8
_0-7_
  6
CONTINUOUS
 62
    7
 10
36561.53833151728
 20
25757.13348118063
 11
36801.064823279077
 21
25757.13348118063
  0
LINE
  8
_0-7_
  6
CONTINUOUS
 62
    7
 10
36361.064823279077
 20
25857.13348118063
 11
36321.064823279077
 21
25857.13348118063
  0
LINE
  8
_0-7_
  6
CONTINUOUS
 62
    7
 10
36561.53833151728
 20
25757.13348118063
 11
36321.064823279077
 21
25757.13348118063
  0
ARC
  8
_0-7_
  6
CONTINUOUS
 62
    7
 10
34652.951793723383
 20
6251.5203622435419
 40
257.56187690214977
 50
89.307389168597708
 51
270.6926108314023
  0
LINE
  8
_0-4_
  6
dotted
 62
    4
 10
20421.053709696188
 20
7977.1708186715841
 11
34406.071481766892
 21
7977.1708186715841
  0
LINE
  8
_0-4_
  6
dotted
 62
    4
 10
34965.053709696192
 20
9795.1708186715841
 11
34965.053709696192
 21
9007.171153304489
  0
LINE
  8
_0-4_
  6
dotted
 62
    4
 10
36783.053709696192
 20
9795.1708186715841
 11
36783.053709696192
 21
8377.1429522344133
  0
LINE
  8
_0-4_
  6
dotted
 62
    4
 10
38601.053709696192
 20
9795.1708186715841
 11
38601.053709696192
 21
8387.1415123703063
  0
LINE
  8
_0-4_
  6
dotted
 62
    4
 10
40419.053709696192
 20
9795.1708186715841
 11
40419.053709696192
 21
8387.1415123703063
  0
SOLID
  8
_0-2_
  6
CONTINUOUS
 62
    7
 10
3221.0727507796891
 20
6074.6895863929839
 11
3336.0611470302901
 21
6074.6895863929803
 12
3221.0727507796891
 22
3774.2922432170844
 13
3336.0611470302901
 23
3727.4359327672614
  0
LINE
  8
_0-7_
  6
CONTINUOUS
 62
    7
 10
2881.0622499049259
 20
9799.9113042569097
 11
2881.0820686564456
 21
9799.9113042569097
  0
LINE
  8
_0-7_
  6
CONTINUOUS
 62
    7
 10
2881.0622499049259
 20
9799.9113042569097
 11
2881.0622499049259
 21
9819.9183339044575
  0
LINE
  8
_0-7_
  6
CONTINUOUS
 62
    7
 10
2881.0622499049259
 20
11719.922222244513
 11
2881.0622499049259
 21
11699.895373845476
  0
LINE
  8
_0-7_
  6
CONTINUOUS
 62
    7
 10
1651.271535736987
 20
26435.711623129715
 11
1651.271535736987
 21
26815.736183299519
  0
LINE
  8
_0-7_
  6
CONTINUOUS
 62
    7
 10
1651.271535736987
 20
26815.736183299519
 11
1835.2688247391483
 21
26815.736183299519
  0
LINE
  8
_0-7_
  6
CONTINUOUS
 62
    7
 10
1835.2688247391483
 20
26435.711623129715
 11
1835.2688247391483
 21
26815.736183299519
  0
LINE
  8
_0-7_
  6
CONTINUOUS
 62
    7
 10
741.29356023775017
 20
27725.714158798724
 11
1835.2688247391483
 21
27725.714158798724
  0
LINE
  8
_0-7_
  6
CONTINUOUS
 62
    7
 10
1651.271535736987
 20
27725.714158798724
 11
1651.271535736987
 21
27860.699675321109
  0
LINE
  8
_0-7_
  6
CONTINUOUS
 62
    7
 10
1835.2688247391483
 20
27725.714158798724
 11
1835.2688247391483
 21
27860.699675321109
  0
LINE
  8
_0-7_
  6
CONTINUOUS
 62
    7
 10
830.77522329731436
 20
26435.711623129715
 11
1651.271535736987
 21
26435.711623129715
  0
LINE
  8
_0-7_
  6
CONTINUOUS
 62
    7
 10
4668.2503497036977
 20
27860.699675321109
 11
6118.2496662984931
 21
27860.699675321109
  0
LINE
  8
_0-7_
  6
CONTINUOUS
 62
    7
 10
1835.2688247391483
 20
27860.699675321109
 11
3768.2709343403812
 21
27860.699675321109
  0
LINE
  8
_0-7_
  6
CONTINUOUS
 62
    7
 10
4668.2503497036977
 20
27860.699675321109
 11
3768.2709343403812
 21
27860.699675321109
  0
ARC
  8
_0-7_
  6
CONTINUOUS
 62
    7
 10
1651.271535736987
 20
27725.714158798724
 40
909.97797549921961
 50
180
 51
270
  0
LINE
  8
_0-7_
  6
CONTINUOUS
 62
    7
 10
1651.271535736987
 20
27725.714158798724
 11
1651.271535736987
 21
26815.736183299519
  0
SOLID
  8
_0-2_
  6
CONTINUOUS
 62
    7
 10
1651.271535736987
 20
27860.699675321109
 11
1835.2688247391483
 21
27860.699675321109
 12
1651.271535736987
 22
27725.714158798724
 13
1835.2688247391483
 23
27725.714158798724
  0
SOLID
  8
_0-2_
  6
CONTINUOUS
 62
    7
 10
1651.271535736987
 20
26815.736183299519
 11
1835.2688247391483
 21
26815.736183299519
 12
1651.271535736987
 22
26435.711623129715
 13
1837.048207597553
 23
26435.711623129715
  0
SOLID
  8
_0-2_
  6
CONTINUOUS
 62
    7
 10
2881.0622499049259
 20
26432.174216845163
 11
2881.0622499049259
 21
25717.173118683662
 12
2251.0538675863526
 22
26432.174216845163
 13
2251.0538675863526
 23
25097.173205876722
  0
SOLID
  8
_0-2_
  6
CONTINUOUS
 62
    7
 10
2881.0622499049259
 20
25717.173118683662
 11
2881.0622499049259
 21
25097.173205876722
 12
2251.0538675863526
 22
25097.173205876722
 13
2404.1140854842296
 23
25097.173205876722
  0
SOLID
  8
_0-2_
  6
CONTINUOUS
 62
    7
 10
2881.0622499049259
 20
25097.173205876722
 11
2596.1082407199628
 21
25097.173205876722
 12
2404.1140854842296
 22
25097.173205876722
 13
2404.1140854842296
 23
25097.173205876722
  0
SOLID
  8
_0-2_
  6
CONTINUOUS
 62
    7
 10
712.55202887916766
 20
26435.711623129715
 11
1651.271535736987
 21
26435.711623129715
 12
712.55202887916766
 22
25097.173205876722
 13
2251.0538675863526
 23
25097.173205876722
  0
SOLID
  8
_0-2_
  6
CONTINUOUS
 62
    7
 10
1651.271535736987
 20
26435.711623129715
 11
1835.2688247391483
 21
26435.711623129715
 12
2251.0538675863526
 22
25097.173205876722
 13
2251.0538675863526
 23
26432.174216845163
  0
SOLID
  8
_0-2_
  6
CONTINUOUS
 62
    7
 10
712.55202887916766
 20
16917.181708380347
 11
2251.0538675863526
 21
16917.181708380347
 12
712.55202887916766
 22
25097.173205876722
 13
2251.0538675863526
 23
25097.173205876722
  0
SOLID
  8
_0-2_
  6
CONTINUOUS
 62
    7
 10
2251.0538675863526
 20
25097.173205876722
 11
2404.1140854842296
 21
25097.173205876722
 12
2251.0538675863526
 22
16917.181708380347
 13
2404.0942667327217
 23
16917.181708380347
  0
SOLID
  8
_0-2_
  6
CONTINUOUS
 62
    7
 10
2404.1140854842296
 20
25097.173205876722
 11
2596.1082407199628
 21
25097.173205876722
 12
2404.0942667327217
 22
16917.181708380347
 13
2596.1082407199628
 23
16917.181708380347
  0
SOLID
  8
_0-2_
  6
CONTINUOUS
 62
    7
 10
2596.1082407199628
 20
25097.173205876722
 11
2596.1082407199628
 21
23257.170587727759
 12
2596.1082407199628
 22
16917.181708380347
 13
2596.1082407199628
 23
23157.175076993094
  0
SOLID
  8
_0-2_
  6
CONTINUOUS
 62
    7
 10
712.55202887916766
 20
16917.181708380347
 11
2251.0538675863526
 21
16917.181708380347
 12
712.55202887916766
 22
16097.180864728376
 13
2251.0538675863526
 23
16097.180864728376
  0
SOLID
  8
_0-2_
  6
CONTINUOUS
 62
    7
 10
2251.0538675863526
 20
16917.181708380347
 11
2404.0942667327217
 21
16917.181708380347
 12
2251.0538675863526
 22
16097.180864728376
 13
2404.0744479812192
 23
16097.180864728376
  0
SOLID
  8
_0-2_
  6
CONTINUOUS
 62
    7
 10
2404.0942667327217
 20
16917.181708380347
 11
2596.1082407199628
 21
16917.181708380347
 12
2404.0744479812192
 22
16097.180864728376
 13
2596.0686032169519
 23
16097.180864728376
  0
SOLID
  8
_0-2_
  6
CONTINUOUS
 62
    7
 10
2596.1082407199628
 20
16917.181708380347
 11
2931.0748693358846
 21
16917.181708380347
 12
2596.0686032169519
 22
16097.180864728376
 13
2931.0847787116299
 23
16097.180864728376
  0
SOLID
  8
_0-2_
  6
CONTINUOUS
 62
    7
 10
2251.0538675863526
 20
16097.180864728376
 11
2404.0744479812192
 21
16097.180864728376
 12
2251.0538675863526
 22
12197.167667937846
 13
2404.0744479812192
 23
12197.167667937846
  0
SOLID
  8
_0-2_
  6
CONTINUOUS
 62
    7
 10
2404.0744479812192
 20
16097.180864728376
 11
2596.0686032169519
 21
16097.180864728376
 12
2404.0744479812192
 22
12197.167667937846
 13
2596.0686032169519
 23
12197.167667937846
  0
SOLID
  8
_0-2_
  6
CONTINUOUS
 62
    7
 10
2596.0686032169519
 20
12197.167667937846
 11
2404.0744479812192
 21
12197.167667937846
 12
2596.0686032169519
 22
12057.197735411145
 13
712.55202887916766
 23
12057.197735411145
  0
SOLID
  8
_0-2_
  6
CONTINUOUS
 62
    7
 10
2404.0744479812192
 20
12197.167667937846
 11
2251.0538675863526
 21
12197.167667937846
 12
712.55202887916766
 22
12057.197735411145
 13
712.55202887916766
 23
12197.167667937846
  0
SOLID
  8
_0-2_
  6
CONTINUOUS
 62
    7
 10
712.55202887916766
 20
12057.197735411145
 11
712.55202887916766
 21
11767.180035215833
 12
2596.0686032169519
 22
12057.197735411145
 13
2661.0542894123568
 23
12057.197735411145
  0
SOLID
  8
_0-2_
  6
CONTINUOUS
 62
    7
 10
712.55202887916766
 20
11767.180035215833
 11
2661.0542894123568
 21
11767.180035215833
 12
2661.0542894123568
 22
12057.197735411145
 13
2661.0542894123568
 23
12057.197735411145
  0
SOLID
  8
_0-2_
  6
CONTINUOUS
 62
    7
 10
2661.0840175396051
 20
11767.180035215833
 11
2661.0542894123568
 21
11674.92374694515
 12
2666.0882522954407
 22
11674.913837569391
 13
2666.0882522954407
 23
11674.913837569391
  0
SOLID
  8
_0-2_
  6
CONTINUOUS
 62
    7
 10
2661.0840175396051
 20
11767.180035215833
 11
2666.0882522954407
 21
11674.913837569391
 12
2746.0866427583027
 22
11674.92374694515
 13
2746.0866427583027
 23
11674.92374694515
  0
SOLID
  8
_0-2_
  6
CONTINUOUS
 62
    7
 10
2661.0840175396051
 20
11767.180035215833
 11
2746.0866427583027
 21
11674.92374694515
 12
2746.0866427583027
 22
12057.197735411145
 13
2746.0866427583027
 23
12057.197735411145
  0
SOLID
  8
_0-2_
  6
CONTINUOUS
 62
    7
 10
2661.0840175396051
 20
11767.180035215833
 11
2746.0866427583027
 21
12057.197735411145
 12
2661.0542894123568
 22
12057.197735411145
 13
2661.0542894123568
 23
12057.197735411145
  0
LINE
  8
_0-7_
  6
CONTINUOUS
 62
    7
 10
2881.0622499049259
 20
11699.895373845476
 11
2881.0622499049259
 21
11674.92374694515
  0
LINE
  8
_0-7_
  6
CONTINUOUS
 62
    7
 10
2746.0866427583027
 20
11674.92374694515
 11
2881.0622499049259
 21
11674.92374694515
  0
SOLID
  8
_0-2_
  6
CONTINUOUS
 62
    7
 10
2746.0866427583027
 20
12057.197735411145
 11
2881.0622499049259
 21
12057.197735411145
 12
2746.0866427583027
 22
11674.92374694515
 13
2881.0622499049259
 23
11674.92374694515
  0
SOLID
  8
_0-2_
  6
CONTINUOUS
 62
    7
 10
2881.0622499049259
 20
12057.197735411145
 11
2881.0622499049259
 21
11887.182575598013
 12
2881.0622499049259
 22
11674.92374694515
 13
2881.0622499049259
 23
11787.177155487621
  0
LINE
  8
_0-7_
  6
CONTINUOUS
 62
    7
 10
2881.0622499049259
 20
9819.9183339044575
 11
2881.0622499049259
 21
9844.9295983078081
  0
LINE
  8
_0-7_
  6
CONTINUOUS
 62
    7
 10
2746.0965521340485
 20
9844.9295983078081
 11
2881.0622499049259
 21
9844.9295983078081
  0
SOLID
  8
_0-2_
  6
CONTINUOUS
 62
    7
 10
2661.0840175396051
 20
9844.9295983078081
 11
2666.0882522954407
 21
9844.9295983078081
 12
2661.0840175396051
 22
9752.6435819098569
 13
2881.0622499049259
 23
9752.6435819098569
  0
SOLID
  8
_0-2_
  6
CONTINUOUS
 62
    7
 10
2666.0882522954407
 20
9844.9295983078081
 11
2746.0965521340485
 21
9844.9295983078081
 12
2881.0622499049259
 22
9752.6435819098569
 13
2881.0622499049259
 23
9844.9295983078081
  0
SOLID
  8
_0-2_
  6
CONTINUOUS
 62
    7
 10
2596.0686032169519
 20
9752.6435819098569
 11
2661.0840175396051
 21
9752.6435819098569
 12
2596.0686032169519
 22
9532.6653495445352
 13
2881.0622499049259
 23
9532.6653495445352
  0
SOLID
  8
_0-2_
  6
CONTINUOUS
 62
    7
 10
2661.0840175396051
 20
9752.6435819098569
 11
2881.0622499049259
 21
9752.6435819098569
 12
2881.0622499049259
 22
9532.6653495445352
 13
2881.0622499049259
 23
9532.6653495445352
  0
SOLID
  8
_0-2_
  6
CONTINUOUS
 62
    7
 10
2596.0686032169519
 20
9752.6435819098569
 11
2596.0686032169519
 21
9532.6653495445352
 12
712.55202887916766
 22
9752.6435819098569
 13
712.55202887916766
 23
9007.1909720560106
  0
SOLID
  8
_0-2_
  6
CONTINUOUS
 62
    7
 10
2596.0686032169519
 20
9532.6653495445352
 11
2596.0686032169519
 21
9007.1909720560106
 12
712.55202887916766
 22
9007.1909720560106
 13
712.55202887916766
 23
9007.1909720560106
  0
SOLID
  8
_0-2_
  6
CONTINUOUS
 62
    7
 10
712.55202887916766
 20
9007.1909720560106
 11
2596.0686032169519
 21
9007.1909720560106
 12
712.55202887916766
 22
7147.1813242594835
 13
2881.0622499049259
 23
7147.1813242594835
  0
SOLID
  8
_0-2_
  6
CONTINUOUS
 62
    7
 10
2596.0686032169519
 20
9007.1909720560106
 11
2881.0622499049259
 21
9007.1909720560106
 12
2881.0622499049259
 22
7147.1813242594835
 13
2881.0622499049259
 23
8387.1811498733168
  0
SOLID
  8
_0-2_
  6
CONTINUOUS
 62
    7
 10
2881.0622499049259
 20
8387.1811498733168
 11
2881.0622499049259
 21
7147.1813242594835
 12
3221.0727507796891
 22
7147.1813242594835
 13
3221.0727507796891
 23
7147.1813242594835
  0
SOLID
  8
_0-2_
  6
CONTINUOUS
 62
    7
 10
3221.0727507796891
 20
7147.1813242594835
 11
3221.0727507796891
 21
6924.6960198283777
 12
3336.0611470302901
 22
6924.6960198283777
 13
3336.0611470302901
 23
6924.6960198283777
  0
SOLID
  8
_0-2_
  6
CONTINUOUS
 62
    7
 10
3221.0727507796891
 20
7147.1813242594835
 11
3336.0611470302901
 21
6924.6960198283777
 12
3336.0611470302901
 22
7147.1813242594807
 13
3336.0611470302901
 23
7147.1813242594807
  0
SOLID
  8
_0-2_
  6
CONTINUOUS
 62
    7
 10
3221.0727507796891
 20
7147.1813242594835
 11
3336.0611470302901
 21
7147.1813242594807
 12
3336.0611470302901
 22
8387.1811498733168
 13
3336.0611470302901
 23
8387.1811498733168
  0
SOLID
  8
_0-2_
  6
CONTINUOUS
 62
    7
 10
3221.0727507796891
 20
7147.1813242594835
 11
3336.0611470302901
 21
8387.1811498733168
 12
2881.0622499049259
 22
8387.1811498733168
 13
2881.0622499049259
 23
8387.1811498733168
  0
LINE
  8
_0-7_
  6
CONTINUOUS
 62
    7
 10
1776.5029362819859
 20
1174.205029327544
 11
3182.5046245285761
 21
1174.205029327544
  0
SOLID
  8
_0-2_
  6
CONTINUOUS
 62
    7
 10
712.55202887916766
 20
16097.180864728376
 11
2251.0538675863526
 21
16097.180864728376
 12
712.55202887916766
 22
12197.167667937846
 13
2251.0538675863526
 23
12197.167667937846
  0
SOLID
  8
_0-2_
  6
CONTINUOUS
 62
    7
 10
846.05302629097991
 20
5912.1956427772229
 11
846.05302629097991
 21
4489.3678345001862
 12
1466.2313078614431
 22
4489.3678345001862
 13
1466.2313078614431
 23
4489.3678345001862
  0
SOLID
  8
_0-2_
  6
CONTINUOUS
 62
    7
 10
846.05302629097991
 20
5912.1956427772229
 11
1466.2313078614431
 21
4489.3678345001862
 12
1741.0876631530015
 22
4377.3720697273374
 13
1741.0876631530015
 23
4377.3720697273374
  0
SOLID
  8
_0-2_
  6
CONTINUOUS
 62
    7
 10
846.05302629097991
 20
5912.1956427772229
 11
1741.0876631530015
 21
4377.3720697273374
 12
1841.053445760383
 22
4339.4389793406307
 13
1841.053445760383
 23
4339.4389793406307
  0
SOLID
  8
_0-2_
  6
CONTINUOUS
 62
    7
 10
846.05302629097991
 20
5912.1956427772229
 11
1841.053445760383
 21
4339.4389793406307
 12
1841.053445760383
 22
4597.2016614563326
 13
1841.053445760383
 23
4597.2016614563326
  0
SOLID
  8
_0-2_
  6
CONTINUOUS
 62
    7
 10
846.05302629097991
 20
5912.1956427772229
 11
1841.053445760383
 21
4597.2016614563326
 12
1841.053445760383
 22
4877.2208015157702
 13
1841.053445760383
 23
4877.2208015157702
  0
SOLID
  8
_0-2_
  6
CONTINUOUS
 62
    7
 10
846.05302629097991
 20
5912.1956427772229
 11
1841.053445760383
 21
4877.2208015157702
 12
1841.053445760383
 22
5157.2201228236654
 13
1841.053445760383
 23
5157.2201228236654
  0
SOLID
  8
_0-2_
  6
CONTINUOUS
 62
    7
 10
846.05302629097991
 20
5912.1956427772229
 11
1841.053445760383
 21
5157.2201228236654
 12
1841.053445760383
 22
5437.1996253800743
 13
1841.053445760383
 23
5437.1996253800743
  0
SOLID
  8
_0-2_
  6
CONTINUOUS
 62
    7
 10
846.05302629097991
 20
5912.1956427772229
 11
1841.053445760383
 21
5437.1996253800743
 12
1841.053445760383
 22
5717.1791279364842
 13
1841.053445760383
 23
5717.1791279364842
  0
SOLID
  8
_0-2_
  6
CONTINUOUS
 62
    7
 10
846.05302629097991
 20
5912.1956427772229
 11
1841.053445760383
 21
5717.1791279364842
 12
1841.053445760383
 22
5912.1956427772229
 13
1841.053445760383
 23
5912.1956427772229
  0
LINE
  8
_0-7_
  6
CONTINUOUS
 62
    7
 10
1760.0542083463437
 20
4127.1900600635117
 11
1741.0876631530015
 21
4127.1900600635117
  0
LINE
  8
_0-7_
  6
CONTINUOUS
 62
    7
 10
1760.0542083463437
 20
3867.1977684031303
 11
1741.0876631530015
 21
3867.1977684031303
  0
LINE
  8
_0-7_
  6
CONTINUOUS
 62
    7
 10
1760.0542083463437
 20
3607.1955673669863
 11
1741.0876631530015
 21
3607.1955673669863
  0
SOLID
  8
_0-2_
  6
CONTINUOUS
 62
    7
 10
846.05302629097991
 20
4489.3678345001862
 11
1466.2313078614431
 21
4489.3678345001862
 12
846.05302629097991
 22
1902.188375116134
 13
1741.0876631530015
 23
1902.188375116134
  0
SOLID
  8
_0-2_
  6
CONTINUOUS
 62
    7
 10
1466.2313078614431
 20
4489.3678345001862
 11
1741.0876631530015
 21
4377.3720697273374
 12
1741.0876631530015
 22
1902.188375116134
 13
1741.0876631530015
 23
3607.1955673669863
  0
SOLID
  8
_0-2_
  6
CONTINUOUS
 62
    7
 10
1741.0876631530015
 20
4377.3720697273374
 11
1741.0876631530015
 21
4127.1900600635117
 12
1741.0876631530015
 22
3607.1955673669863
 13
1741.0876631530015
 23
3867.1977684031303
  0
SOLID
  8
_0-2_
  6
CONTINUOUS
 62
    7
 10
846.05302629097991
 20
1902.188375116134
 11
846.05302629097991
 21
1174.205029327544
 12
1741.0876631530015
 22
1902.188375116134
 13
3182.5046245285761
 23
1902.188375116134
  0
SOLID
  8
_0-2_
  6
CONTINUOUS
 62
    7
 10
846.05302629097991
 20
1174.205029327544
 11
1776.5029362819859
 21
1174.205029327544
 12
3182.5046245285761
 22
1902.188375116134
 13
3182.5046245285761
 23
1174.205029327544
  0
SOLID
  8
_0-2_
  6
CONTINUOUS
 62
    7
 10
3182.5046245285761
 20
1902.188375116134
 11
3279.5777052318953
 21
1902.188375116134
 12
3182.5046245285761
 22
1174.205029327544
 13
3279.5777052318953
 23
1174.205029327544
  0
SOLID
  8
_0-2_
  6
CONTINUOUS
 62
    7
 10
34861.040650764982
 20
9007.171153304489
 11
34861.040650764982
 21
8387.1415123703063
 12
35681.056358480585
 22
9007.171153304489
 13
35681.056358480585
 23
8377.1429522344133
  0
SOLID
  8
_0-2_
  6
CONTINUOUS
 62
    7
 10
36861.049959215451
 20
9407.1531962430726
 11
37681.035938803797
 21
9407.1531962430726
 12
36861.049959215451
 22
8377.1429522344133
 13
37681.035938803797
 23
8387.1415123703063
  0
SOLID
  8
_0-2_
  6
CONTINUOUS
 62
    7
 10
34406.071481766892
 20
8187.1415123703063
 11
34606.071481766892
 21
8187.1415123703063
 12
34406.071481766892
 22
7758.3263587165874
 13
34606.071481766892
 23
7758.3263587165874
  0
SOLID
  8
_0-2_
  6
CONTINUOUS
 62
    7
 10
34406.071481766892
 20
7758.3263587165874
 11
34606.071481766892
 21
7758.3263587165874
 12
34406.071481766892
 22
6822.1627780556273
 13
34606.071481766892
 23
6822.1627780556273
  0
SOLID
  8
_0-2_
  6
CONTINUOUS
 62
    7
 10
34406.071481766892
 20
6822.1627780556273
 11
34606.071481766892
 21
6822.1627780556273
 12
34406.071481766892
 22
6622.1627780556273
 13
34606.071481766892
 23
6622.1627780556273
  0
SOLID
  8
_0-2_
  6
CONTINUOUS
 62
    7
 10
34606.071481766892
 20
6822.1627780556273
 11
34656.065213291381
 21
6822.1627780556273
 12
34606.071481766892
 22
6622.1627780556273
 13
34656.065213291381
 23
6622.1627780556273
  0
SOLID
  8
_0-2_
  6
CONTINUOUS
 62
    7
 10
34656.065213291381
 20
6822.1627780556273
 11
34856.065213291381
 21
6822.1627780556273
 12
34656.065213291381
 22
6622.1627780556273
 13
34856.065213291381
 23
6622.1627780556273
  0
SOLID
  8
_0-2_
  6
CONTINUOUS
 62
    7
 10
34656.065213291381
 20
6622.1627780556273
 11
34856.065213291381
 21
6622.1627780556273
 12
34656.065213291381
 22
2372.1900671332095
 13
34856.065213291381
 23
2372.1900671332095
  0
SOLID
  8
_0-2_
  6
CONTINUOUS
 62
    7
 10
34656.065213291381
 20
2372.1900671332095
 11
34856.065213291381
 21
2372.1900671332095
 12
34656.065213291381
 22
2172.1900671332095
 13
34856.065213291381
 23
2172.1900671332095
  0
SOLID
  8
_0-2_
  6
CONTINUOUS
 62
    7
 10
34406.051663015387
 20
2372.1603390059613
 11
34656.065213291381
 21
2372.1900671332095
 12
34406.051663015387
 22
1267.1955767932502
 13
34656.065213291381
 23
1267.1955767932502
  0
SOLID
  8
_0-2_
  6
CONTINUOUS
 62
    7
 10
34656.065213291381
 20
2372.1900671332095
 11
34656.065213291381
 21
2172.1900671332095
 12
34656.065213291381
 22
1267.1955767932502
 13
34656.065213291381
 23
1267.1955767932502
  0
SOLID
  8
_0-2_
  6
CONTINUOUS
 62
    7
 10
34224.046158539786
 20
1267.1955767932502
 11
34406.051663015387
 21
1267.1955767932502
 12
34224.046158539786
 22
997.16508749397689
 13
34336.061742064157
 23
997.16508749397689
  0
SOLID
  8
_0-2_
  6
CONTINUOUS
 62
    7
 10
34406.051663015387
 20
1267.1955767932502
 11
34656.065213291381
 21
1267.1955767932502
 12
34336.061742064157
 22
997.16508749397689
 13
34656.065213291381
 23
997.16508749397689
  0
TEXT
  8
_0-6_
 62
    7
 10
5771.2840601461948
 20
23928.953157767242
 40
250
 41
1
 50
0
  1
※一文字幕バトンのみ手引き
  0
LINE
  8
_0-8_
  6
CONTINUOUS
 62
    7
 10
696.10824071996262
 20
25097.173205876722
 11
696.10824071996262
 21
582.18413800375401
  0
LINE
  8
_0-8_
  6
CONTINUOUS
 62
    7
 10
6546.0845100626956
 20
582.18413800374833
 11
696.10824071996262
 21
582.18413800374833
  0
LINE
  8
_0-8_
  6
CONTINUOUS
 62
    7
 10
6546.0845100626956
 20
582.18413800374833
 11
41281.075576306815
 21
582.18413800374833
  0
LINE
  8
_0-8_
  6
CONTINUOUS
 62
    7
 10
1835.2688247391483
 20
29135.711623129707
 11
696.10824071996262
 21
29135.711623129707
  0
LINE
  8
_0-8_
  6
CONTINUOUS
 62
    7
 10
696.10824071996262
 20
25097.173205876722
 11
696.10824071996262
 21
29135.711623129707
  0
LINE
  8
_0-8_
  6
CONTINUOUS
 62
    7
 10
1835.2688247391483
 20
29135.711623129707
 11
41281.075576306815
 21
29135.711623129707
  0
LINE
  8
_0-8_
  6
CONTINUOUS
 62
    7
 10
41281.075576306815
 20
24697.131706683605
 11
41281.075576306815
 21
29135.711623129707
  0
LINE
  8
_0-4_
  6
dotted
 62
    4
 10
20421.053709696188
 20
9795.1708186715841
 11
41281.075576306815
 21
9795.1708186715841
  0
LINE
  8
_0-4_
  6
dotted
 62
    4
 10
20421.053709696188
 20
11613.170818671587
 11
41281.075576306815
 21
11613.170818671587
  0
LINE
  8
_0-4_
  6
dotted
 62
    4
 10
20421.053709696188
 20
13431.170818671585
 11
41281.075576306815
 21
13431.170818671585
  0
LINE
  8
_0-4_
  6
dotted
 62
    4
 10
20421.053709696188
 20
15249.170818671587
 11
41281.075576306815
 21
15249.170818671587
  0
LINE
  8
_0-4_
  6
dotted
 62
    4
 10
20421.053709696188
 20
17067.170818671587
 11
41281.075576306815
 21
17067.170818671587
  0
LINE
  8
_0-4_
  6
dotted
 62
    4
 10
20421.053709696188
 20
20703.170818671587
 11
41281.075576306815
 21
20703.170818671587
  0
LINE
  8
_0-4_
  6
dotted
 62
    4
 10
20421.053709696188
 20
18885.170818671584
 11
41281.075576306815
 21
18885.170818671584
  0
LINE
  8
_0-4_
  6
dotted
 62
    4
 10
20421.053709696188
 20
22521.170818671587
 11
41281.075576306815
 21
22521.170818671587
  0
LINE
  8
_0-4_
  6
dotted
 62
    4
 10
20421.053709696188
 20
24339.170818671584
 11
41281.075576306815
 21
24339.170818671584
  0
LINE
  8
_0-7_
  6
CONTINUOUS
 62
    7
 10
41281.075576306815
 20
8387.1415123703063
 11
37681.035938803797
 21
8387.1415123703063
  0
LINE
  8
_0-7_
  6
CONTINUOUS
 62
    7
 10
40358.564131625869
 20
26402.138898934474
 11
41281.075576306815
 21
26402.13644071648
  0
LINE
  8
_0-7_
  6
CONTINUOUS
 62
    7
 10
37681.075576306815
 20
25717.133481180633
 11
41281.075576306815
 21
25717.133481180633
  0
LINE
  8
_0-7_
  6
CONTINUOUS
 62
    7
 10
31681.072424394784
 20
27917.18335797917
 11
31681.072424394784
 21
29135.711623129707
  0
LINE
  8
_0-7_
  6
CONTINUOUS
 62
    7
 10
11131.093215231321
 20
28147.179969231867
 11
11131.093215231321
 21
29135.711623129707
  0
LINE
  8
_0-7_
  6
CONTINUOUS
 62
    7
 10
8010.2995392607681
 20
27534.182049131552
 11
8010.2995392607681
 21
29135.711623129707
  0
LINE
  8
_0-7_
  6
CONTINUOUS
 62
    7
 10
6118.2496662984931
 20
27860.699675321109
 11
6118.2496662984931
 21
29135.711623129707
  0
LINE
  8
_0-7_
  6
CONTINUOUS
 62
    7
 10
696.10824071996262
 20
27860.699675321109
 11
1651.271535736987
 21
27860.699675321109
  0
LINE
  8
_0-7_
  6
CONTINUOUS
 62
    7
 10
830.77522329731436
 20
26435.711623129715
 11
696.10824071996262
 21
26435.711623129715
  0
LINE
  8
_0-7_
  6
CONTINUOUS
 62
    7
 10
737.54536178354896
 20
11767.180035215833
 11
696.10824071996262
 21
11767.180035215833
  0
LINE
  8
_0-7_
  6
CONTINUOUS
 62
    7
 10
737.59490866232226
 20
9752.6435819098569
 11
696.10824071996262
 21
9752.6435819098569
  0
LINE
  8
_0-7_
  6
CONTINUOUS
 62
    7
 10
846.05302629097991
 20
7147.1813242594835
 11
696.10824071996262
 21
7147.1813242594835
  0
LINE
  8
_0-7_
  6
CONTINUOUS
 62
    7
 10
11432.675156931658
 20
1001.3369346864465
 11
11327.87525089033
 21
582.18413800374833
  0
LINE
  8
_0-7_
  6
CONTINUOUS
 62
    7
 10
11946.85284606053
 20
872.78260302848025
 11
11874.193953806347
 21
582.18413800374833
  0
LINE
  8
_0-7_
  6
CONTINUOUS
 62
    7
 10
12461.010716437887
 20
744.22827137052536
 11
12420.496450231028
 21
582.18413800375401
  0
LINE
  8
_0-7_
  6
CONTINUOUS
 62
    7
 10
12975.178496190983
 20
615.6937584640616
 11
12966.801625894924
 21
582.18413800374833
  0
LINE
  8
_0-7_
  6
CONTINUOUS
 62
    7
 10
10404.339597425452
 20
1258.4158698751423
 11
13109.233012700116
 21
582.18413800374833
  0
LINE
  8
_0-7_
  6
CONTINUOUS
 62
    7
 10
10249.08940748592
 20
637.51420387460484
 11
10470.409061634207
 21
582.18413800374833
  0
LINE
  8
_0-7_
  6
CONTINUOUS
 62
    7
 10
10918.497467802804
 20
1129.8714475929159
 11
10781.562529055576
 21
582.18413800374833
  0
LINE
  8
_0-7_
  6
DASHED1
 62
    7
 10
13848.323322012198
 20
667.4801561549998
 11
14189.501915121707
 21
582.18413800374833
  0
LINE
  8
_0-7_
  6
CONTINUOUS
 62
    7
 10
14517.721472953315
 20
1159.8175811218084
 11
14373.303893049649
 21
582.18413800374833
  0
LINE
  8
_0-7_
  6
CONTINUOUS
 62
    7
 10
15031.884298018541
 20
1031.273158839599
 11
14919.619210343747
 21
582.18413800375401
  0
LINE
  8
_0-7_
  6
CONTINUOUS
 62
    7
 10
15546.061987147402
 20
902.72873655738976
 11
15465.920721564816
 21
582.18413800375401
  0
LINE
  8
_0-7_
  6
CONTINUOUS
 62
    7
 10
16446.066175950101
 20
582.18413800374833
 11
16446.066175950101
 21
867.17389635165886
  0
LINE
  8
_0-7_
  6
CONTINUOUS
 62
    7
 10
16976.07409284616
 20
582.18413800374833
 11
16976.07409284616
 21
867.17389635165886
  0
LINE
  8
_0-7_
  6
CONTINUOUS
 62
    7
 10
17506.062190990691
 20
582.18413800374833
 11
17506.062190990691
 21
867.17389635165886
  0
LINE
  8
_0-7_
  6
CONTINUOUS
 62
    7
 10
18036.075062574615
 20
582.18413800374833
 11
18036.075062574615
 21
867.17389635165886
  0
LINE
  8
_0-7_
  6
CONTINUOUS
 62
    7
 10
18566.063160719146
 20
582.18413800374833
 11
18566.063160719146
 21
867.17389635165886
  0
LINE
  8
_0-7_
  6
CONTINUOUS
 62
    7
 10
19096.06612292731
 20
582.18413800374833
 11
19096.06612292731
 21
867.17389635165886
  0
LINE
  8
_0-7_
  6
CONTINUOUS
 62
    7
 10
19626.054221071841
 20
582.18413800374833
 11
19626.054221071841
 21
867.17389635165886
  0
LINE
  8
_0-7_
  6
CONTINUOUS
 62
    7
 10
20156.067092655746
 20
582.18413800374833
 11
20156.067092655746
 21
867.17389635165886
  0
LINE
  8
_0-7_
  6
CONTINUOUS
 62
    7
 10
20686.060145488168
 20
582.18413800374833
 11
20686.060145488168
 21
867.17389635165886
  0
LINE
  8
_0-7_
  6
CONTINUOUS
 62
    7
 10
21216.058153008441
 20
582.18413800374833
 11
21216.058153008441
 21
867.17389635165886
  0
LINE
  8
_0-7_
  6
CONTINUOUS
 62
    7
 10
21746.051205840842
 20
582.18413800374833
 11
21746.051205840842
 21
867.17389635165886
  0
LINE
  8
_0-7_
  6
CONTINUOUS
 62
    7
 10
22276.064077424769
 20
582.18413800374833
 11
22276.064077424769
 21
867.17389635165886
  0
LINE
  8
_0-7_
  6
CONTINUOUS
 62
    7
 10
22806.057130257169
 20
582.18413800374833
 11
22806.057130257169
 21
867.17389635165886
  0
LINE
  8
_0-7_
  6
CONTINUOUS
 62
    7
 10
23336.060092465333
 20
582.18413800374833
 11
23336.060092465333
 21
867.17389635165886
  0
LINE
  8
_0-7_
  6
CONTINUOUS
 62
    7
 10
23866.058099985617
 20
582.18413800374833
 11
23866.058099985617
 21
867.17389635165886
  0
LINE
  8
_0-7_
  6
CONTINUOUS
 62
    7
 10
24396.061062193781
 20
582.18413800374833
 11
24396.061062193781
 21
867.17389635165886
  0
LINE
  8
_0-7_
  6
CONTINUOUS
 62
    7
 10
25296.065250996503
 20
902.69900843012464
 11
25376.190131939572
 21
582.18413800374833
  0
LINE
  8
_0-7_
  6
CONTINUOUS
 62
    7
 10
25810.242940125339
 20
1031.2929775911015
 11
25922.534485265572
 21
582.18413800375401
  0
LINE
  8
_0-7_
  6
CONTINUOUS
 62
    7
 10
30078.875005592748
 20
1438.7665085997866
 11
26652.629897489241
 21
582.18413800375401
  0
LINE
  8
_0-7_
  6
CONTINUOUS
 62
    7
 10
26324.425583942094
 20
1159.8373998733109
 11
26468.829679969017
 21
582.18413800374833
  0
LINE
  8
_0-7_
  6
CONTINUOUS
 62
    7
 10
30437.827278221469
 20
1258.4158698751423
 11
27732.866465644754
 21
582.18413800374833
  0
LINE
  8
_0-7_
  6
CONTINUOUS
 62
    7
 10
30593.052694721609
 20
637.53402262609029
 11
30371.654649638025
 21
582.18413800374833
  0
LINE
  8
_0-7_
  6
CONTINUOUS
 62
    7
 10
29923.644634404739
 20
1129.8912663444184
 11
30060.580157985186
 21
582.18413800374833
  0
LINE
  8
_0-7_
  6
CONTINUOUS
 62
    7
 10
29409.471899963751
 20
1001.3468440622091
 11
29514.260904028742
 21
582.18413800374833
  0
LINE
  8
_0-7_
  6
CONTINUOUS
 62
    7
 10
28895.29421083489
 20
872.79251240424287
 11
28967.947463992801
 21
582.18413800374833
  0
LINE
  8
_0-7_
  6
CONTINUOUS
 62
    7
 10
28381.131385769662
 20
744.25799949777342
 11
28421.648557780506
 21
582.18413800374833
  0
LINE
  8
_0-7_
  6
CONTINUOUS
 62
    7
 10
27866.928923201419
 20
615.7135772155641
 11
27875.312085707366
 21
582.18413800374833
  0
LINE
  8
_0-7_
  6
CONTINUOUS
 62
    7
 10
31611.06763937994
 20
907.16813689522837
 11
31651.691645616421
 21
582.18413800374833
  0
LINE
  8
_0-7_
  6
CONTINUOUS
 62
    7
 10
32077.05603421658
 20
997.16508749397689
 11
32077.05603421658
 21
582.18413800374833
  0
ARC
  8
_0-7_
  6
CONTINUOUS
 62
    7
 10
34224.046158539786
 20
997.16508749397689
 40
799.98390462867973
 50
180
 51
211.24754479042638
  0
LINE
  8
_0-7_
  6
CONTINUOUS
 62
    7
 10
34224.046158539786
 20
997.16508749397689
 11
34224.046158539786
 21
582.18413800374833
  0
LINE
  8
_0-7_
  6
CONTINUOUS
 62
    7
 10
34336.061742064157
 20
582.18413800374833
 11
34336.061742064157
 21
997.16508749397689
  0
LINE
  8
_0-7_
  6
CONTINUOUS
 62
    7
 10
9231.0695081397389
 20
907.16813689522837
 11
9190.4491919672655
 21
582.18413800374833
  0
LINE
  8
_0-7_
  6
CONTINUOUS
 62
    7
 10
7761.0730712731874
 20
582.18413800374833
 11
7761.0730712731874
 21
2017.176771366735
  0
ARC
  8
_0-7_
  6
CONTINUOUS
 62
    7
 10
6546.0547819354305
 20
-2.8098386039857814
 40
1114.9831411000777
 50
31.64577525754062
 51
90
  0
LINE
  8
_0-7_
  6
CONTINUOUS
 62
    7
 10
6546.0547819354305
 20
582.18413800374833
 11
6546.0547819354305
 21
1112.173302496086
  0
LINE
  8
_0-7_
  6
CONTINUOUS
 62
    7
 10
3279.5777052318953
 20
582.18413800374833
 11
3279.5777052318953
 21
1157.1915965469656
  0
LINE
  8
_0-7_
  6
CONTINUOUS
 62
    7
 10
3182.5046245285761
 20
582.18413800374833
 11
3182.5046245285761
 21
1174.205029327544
  0
LINE
  8
_0-7_
  6
CONTINUOUS
 62
    7
 10
1776.5029362819859
 20
582.18413800374833
 11
1776.5029362819859
 21
1174.205029327544
  0
LINE
  8
_0-7_
  6
CONTINUOUS
 62
    7
 10
846.05302629097991
 20
582.18413800374833
 11
846.05302629097991
 21
5912.1956427772229
  0
SOLID
  8
_0-2_
  6
CONTINUOUS
 62
    7
 10
34336.061742064157
 20
997.16508749397689
 11
34656.065213291381
 21
997.16508749397689
 12
34336.061742064157
 22
582.18413800374833
 13
34656.065213291381
 23
582.18413800374833
  0
SOLID
  8
_0-2_
  6
CONTINUOUS
 62
    7
 10
31617.067287451613
 20
997.16508749397689
 11
32077.05603421658
 21
997.16508749397689
 12
31611.06763937994
 22
907.16813689522837
 13
31651.691645616421
 23
582.18413800374833
  0
SOLID
  8
_0-2_
  6
CONTINUOUS
 62
    7
 10
32077.05603421658
 20
997.16508749397689
 11
32077.05603421658
 21
582.18413800374833
 12
31651.691645616421
 22
582.18413800374833
 13
31651.691645616421
 23
582.18413800374833
  0
SOLID
  8
_0-2_
  6
CONTINUOUS
 62
    7
 10
7761.0730712731874
 20
2017.176771366735
 11
7761.0730712731874
 21
582.18413800374833
 12
9190.4491919672655
 22
582.18413800374833
 13
9190.4491919672655
 23
582.18413800374833
  0
SOLID
  8
_0-2_
  6
CONTINUOUS
 62
    7
 10
7761.0730712731874
 20
2017.176771366735
 11
9190.4491919672655
 21
582.18413800374833
 12
9231.0695081397389
 22
907.16813689522837
 13
9231.0695081397389
 23
907.16813689522837
  0
SOLID
  8
_0-2_
  6
CONTINUOUS
 62
    7
 10
7761.0730712731874
 20
2017.176771366735
 11
9231.0695081397389
 21
907.16813689522837
 12
9164.3993931978475
 22
1907.1827004962074
 13
9164.3993931978475
 23
1907.1827004962074
  0
SOLID
  8
_0-2_
  6
CONTINUOUS
 62
    7
 10
9164.3993931978475
 20
1907.1827004962074
 11
9154.3984795668038
 21
2057.1908306618124
 12
8951.6251118740437
 22
2017.176771366735
 13
8951.6251118740437
 23
2017.176771366735
  0
SOLID
  8
_0-2_
  6
CONTINUOUS
 62
    7
 10
9164.3993931978475
 20
1907.1827004962074
 11
8951.6251118740437
 21
2017.176771366735
 12
7761.0730712731874
 22
2017.176771366735
 13
7761.0730712731874
 23
2017.176771366735
  0
SOLID
  8
_0-2_
  6
CONTINUOUS
 62
    7
 10
3182.5046245285761
 20
1174.205029327544
 11
3279.5777052318953
 21
1174.205029327544
 12
3182.5046245285761
 22
582.18413800374833
 13
3279.5777052318953
 23
582.18413800374833
  0
SOLID
  8
_0-2_
  6
CONTINUOUS
 62
    7
 10
3279.5777052318953
 20
1174.205029327544
 11
3279.5777052318953
 21
1157.1915965469656
 12
3279.5777052318953
 22
582.18413800374833
 13
3279.5777052318953
 23
582.18413800374833
  0
SOLID
  8
_0-2_
  6
CONTINUOUS
 62
    7
 10
846.05302629097991
 20
1174.205029327544
 11
846.05302629097991
 21
582.18413800374833
 12
1776.5029362819859
 22
1174.205029327544
 13
1776.5029362819859
 23
582.18413800374833
  0
SOLID
  8
_0-2_
  6
CONTINUOUS
 62
    7
 10
712.55202887916766
 20
5912.1956427772229
 11
846.05302629097991
 21
5912.1956427772229
 12
712.55202887916766
 22
4489.3678345001862
 13
846.05302629097991
 23
4489.3678345001862
  0
SOLID
  8
_0-2_
  6
CONTINUOUS
 62
    7
 10
712.55202887916766
 20
4489.3678345001862
 11
696.10824071996262
 21
4489.3678345001862
 12
712.55202887916766
 22
5912.1956427772229
 13
696.10824071996262
 23
5912.1956427772229
  0
SOLID
  8
_0-2_
  6
CONTINUOUS
 62
    7
 10
712.55202887916766
 20
4489.3678345001862
 11
846.05302629097991
 21
4489.3678345001862
 12
712.55202887916766
 22
1902.188375116134
 13
846.05302629097991
 23
1902.188375116134
  0
SOLID
  8
_0-2_
  6
CONTINUOUS
 62
    7
 10
712.55202887916766
 20
1902.188375116134
 11
696.10824071996262
 21
1902.188375116134
 12
712.55202887916766
 22
4489.3678345001862
 13
696.10824071996262
 23
4489.3678345001862
  0
SOLID
  8
_0-2_
  6
CONTINUOUS
 62
    7
 10
712.55202887916766
 20
1902.188375116134
 11
846.05302629097991
 21
1902.188375116134
 12
712.55202887916766
 22
1174.205029327544
 13
846.05302629097991
 23
1174.205029327544
  0
SOLID
  8
_0-2_
  6
CONTINUOUS
 62
    7
 10
712.55202887916766
 20
1174.205029327544
 11
696.10824071996262
 21
1174.205029327544
 12
712.55202887916766
 22
1902.188375116134
 13
696.10824071996262
 23
1902.188375116134
  0
SOLID
  8
_0-2_
  6
CONTINUOUS
 62
    7
 10
712.55202887916766
 20
1174.205029327544
 11
846.05302629097991
 21
1174.205029327544
 12
712.55202887916766
 22
582.18413800374833
 13
846.05302629097991
 23
582.18413800374833
  0
SOLID
  8
_0-2_
  6
CONTINUOUS
 62
    7
 10
712.55202887916766
 20
582.18413800374833
 11
696.10824071996262
 21
582.18413800375401
 12
712.55202887916766
 22
1174.205029327544
 13
696.10824071996262
 23
1174.205029327544
  0
SOLID
  8
_0-2_
  6
CONTINUOUS
 62
    7
 10
8010.2995392607681
 20
29135.711623129707
 11
8010.2995392607681
 21
28147.179969231867
 12
11131.093215231321
 22
29135.711623129707
 13
11131.093215231321
 23
28147.179969231867
  0
SOLID
  8
_0-2_
  6
CONTINUOUS
 62
    7
 10
8010.2995392607681
 20
28147.179969231867
 11
8961.0984750949719
 21
28147.179969231867
 12
11131.093215231321
 22
28147.179969231867
 13
11131.093215231321
 23
28147.179969231867
  0
SOLID
  8
_0-2_
  6
CONTINUOUS
 62
    7
 10
31681.072424394784
 20
29135.711623129707
 11
31681.072424394784
 21
28857.147104510306
 12
40346.063454112081
 22
29135.711623129707
 13
40346.063454112081
 23
28857.147104510306
  0
SOLID
  8
_0-2_
  6
CONTINUOUS
 62
    7
 10
40346.063454112081
 20
26404.626152248751
 11
41281.075576306815
 21
26402.13644071648
 12
40346.063454112081
 22
25717.133481180633
 13
41281.075576306815
 23
25717.133481180633
  0
SOLID
  8
_0-2_
  6
CONTINUOUS
 62
    7
 10
34606.071481766892
 20
8187.1415123703063
 11
41281.075576306815
 21
8187.1415123703063
 12
41281.075576306815
 22
8387.1415123703063
 13
41281.075576306815
 23
8387.1415123703063
  0
SOLID
  8
_0-2_
  6
CONTINUOUS
 62
    7
 10
34606.071481766892
 20
8187.1415123703063
 11
41281.075576306815
 21
8387.1415123703063
 12
37681.035938803797
 22
8387.1415123703063
 13
37681.035938803797
 23
8387.1415123703063
  0
SOLID
  8
_0-2_
  6
CONTINUOUS
 62
    7
 10
34606.071481766892
 20
8187.1415123703063
 11
37681.035938803797
 21
8387.1415123703063
 12
36861.049959215451
 22
8377.1429522344133
 13
36861.049959215451
 23
8377.1429522344133
  0
SOLID
  8
_0-2_
  6
CONTINUOUS
 62
    7
 10
34606.071481766892
 20
8187.1415123703063
 11
36861.049959215451
 21
8377.1429522344133
 12
35681.056358480585
 22
8377.1429522344133
 13
35681.056358480585
 23
8377.1429522344133
  0
SOLID
  8
_0-2_
  6
CONTINUOUS
 62
    7
 10
34606.071481766892
 20
8187.1415123703063
 11
35681.056358480585
 21
8377.1429522344133
 12
34861.040650764982
 22
8387.1415123703063
 13
34861.040650764982
 23
8387.1415123703063
  0
SOLID
  8
_0-2_
  6
CONTINUOUS
 62
    7
 10
34606.071481766892
 20
8187.1415123703063
 11
34861.040650764982
 21
8387.1415123703063
 12
34606.071481766892
 22
8387.1415123703063
 13
34606.071481766892
 23
8387.1415123703063
  0
SOLID
  8
_0-2_
  6
CONTINUOUS
 62
    7
 10
6118.2496662984931
 20
29135.711623129707
 11
6118.2496662984931
 21
27860.699675321109
 12
712.55202887916766
 22
29135.711623129707
 13
712.55202887916766
 23
27860.699675321109
  0
SOLID
  8
_0-2_
  6
CONTINUOUS
 62
    7
 10
6118.2496662984931
 20
27860.699675321109
 11
1835.2688247391483
 21
27860.699675321109
 12
712.55202887916766
 22
27860.699675321109
 13
1650.8048213541655
 23
27860.699675321109
  0
SOLID
  8
_0-2_
  6
CONTINUOUS
 62
    7
 10
696.10824071996262
 20
29135.711623129707
 11
712.55202887916766
 21
29135.711623129707
 12
696.10824071996262
 22
27860.699675321109
 13
712.55202887916766
 23
27860.699675321109
  0
SOLID
  8
_0-2_
  6
CONTINUOUS
 62
    7
 10
696.10824071996262
 20
26435.711623129715
 11
712.55202887916766
 21
26435.711623129715
 12
696.10824071996262
 22
25097.173205876722
 13
712.55202887916766
 23
25097.173205876722
  0
SOLID
  8
_0-2_
  6
CONTINUOUS
 62
    7
 10
696.10824071996262
 20
25097.173205876722
 11
712.55202887916766
 21
25097.173205876722
 12
696.10824071996262
 22
16917.181708380347
 13
712.55202887916766
 23
16917.181708380347
  0
SOLID
  8
_0-2_
  6
CONTINUOUS
 62
    7
 10
696.10824071996262
 20
16917.181708380347
 11
712.55202887916766
 21
16917.181708380347
 12
696.10824071996262
 22
16097.180864728376
 13
712.55202887916766
 23
16097.180864728376
  0
SOLID
  8
_0-2_
  6
CONTINUOUS
 62
    7
 10
696.10824071996262
 20
16097.180864728376
 11
712.55202887916766
 21
16097.180864728376
 12
696.10824071996262
 22
12197.167667937846
 13
712.55202887916766
 23
12197.167667937846
  0
SOLID
  8
_0-2_
  6
CONTINUOUS
 62
    7
 10
696.10824071996262
 20
12197.167667937846
 11
712.55202887916766
 21
12197.167667937846
 12
696.10824071996262
 22
12057.197735411145
 13
712.55202887916766
 23
12057.197735411145
  0
SOLID
  8
_0-2_
  6
CONTINUOUS
 62
    7
 10
696.10824071996262
 20
12057.197735411145
 11
712.55202887916766
 21
12057.197735411145
 12
696.10824071996262
 22
11767.180035215833
 13
712.55202887916766
 23
11767.180035215833
  0
LINE
  8
_0-7_
  6
CONTINUOUS
 62
    7
 10
40346.063454112081
 20
26622.156768802789
 11
41281.075576306815
 21
26622.156768802789
  0
ARC
  8
_0-7_
  6
CONTINUOUS
 62
    7
 10
40346.063454112081
 20
26622.156768802789
 40
1200.0055850702774
 50
38.815068710455363
 51
90
  0
ARC
  8
_0-7_
  6
CONTINUOUS
 62
    7
 10
28906.050838215967
 20
26427.130344586305
 40
2829.9929191707196
 50
0.0000915522156806
 51
73.156197351327648
  0
TEXT
  8
_0-6_
 62
    7
 10
5912.1938114076783
 20
22954.582253236734
 40
200
 41
1
 50
0
  1
ホリゾント幕
  0
TEXT
  8
_0-6_
 62
    7
 10
5912.1938114076783
 20
22455.000256541876
 40
200
 41
1
 50
0
  1
大黒幕
  0
TEXT
  8
_0-6_
 62
    7
 10
5912.1938114076783
 20
20807.064026348427
 40
200
 41
1
 50
0
  1
一文字幕 5
  0
TEXT
  8
_0-6_
 62
    7
 10
5714.8703286948657
 20
20558.41362616697
 40
200
 41
1
 50
0
  1
サスペンションライト 5
  0
TEXT
  8
_0-6_
 62
    7
 10
5905.5783420450497
 20
20059.801137913189
 40
200
 41
1
 50
0
  1
引割幕 5
  0
TEXT
  8
_0-6_
 62
    7
 10
5906.4908205778292
 20
19808.869541399788
 40
200
 41
1
 50
0
  1
一文字幕 4
  0
TEXT
  8
_0-6_
 62
    7
 10
5908.7720169097683
 20
17707.431480416671
 40
200
 41
1
 50
0
  1
引割幕 4
  0
TEXT
  8
_0-6_
 62
    7
 10
5911.0532132417065
 20
17458.78108023521
 40
200
 41
1
 50
0
  1
一文字幕 3
  0
TEXT
  8
_0-6_
 62
    7
 10
5714.8703286948657
 20
16157.586692496641
 40
200
 41
1
 50
0
  1
サスペンションライト 3
  0
TEXT
  8
_0-6_
 62
    7
 10
5714.8703286948657
 20
15208.609018409606
 40
200
 41
1
 50
0
  1
ボーダーライト 3
  0
TEXT
  8
_0-6_
 62
    7
 10
5908.7720169097683
 20
14957.677421896207
 40
200
 41
1
 50
0
  1
引割幕 3
  0
TEXT
  8
_0-6_
 62
    7
 10
5908.7720169097683
 20
14709.027021714749
 40
200
 41
1
 50
0
  1
一文字幕 2
  0
TEXT
  8
_0-6_
 62
    7
 10
5908.7720169097683
 20
12608.045199998017
 40
200
 41
1
 50
0
  1
引割幕 2
  0
TEXT
  8
_0-6_
 62
    7
 10
5908.7720169097683
 20
12357.113603484618
 40
200
 41
1
 50
0
  1
一文字幕 1
  0
TEXT
  8
_0-6_
 62
    7
 10
5906.4908205778292
 20
10007.025142320042
 40
200
 41
1
 50
0
  1
暗転幕
  0
TEXT
  8
_0-6_
 62
    7
 10
5906.4908205778292
 20
10257.956738833439
 40
200
 41
1
 50
0
  1
引割幕 1 
  0
TEXT
  8
_0-6_
 62
    7
 10
5908.7720169097683
 20
9507.4431456251822
 40
200
 41
1
 50
0
  1
緞帳
  0
TEXT
  8
_0-5_
 62
    7
 10
19661.092421303663
 20
16852.16820314114
 40
500
 41
1
 50
0
  1
大迫り
  0
TEXT
  8
_0-5_
 62
    7
 10
19665.583526582169
 20
12960.561320668113
 40
500
 41
1
 50
0
  1
小迫り
  0
LINE
  8
_0-7_
  6
CONTINUOUS
 62
    7
 10
4361.0770656588611
 20
12057.197735411145
 11
4361.0770656588611
 21
11787.177155487621
  0
LINE
  8
_0-7_
  6
CONTINUOUS
 62
    7
 10
4261.0815549242315
 20
11887.182575598013
 11
4361.0770656588611
 21
11887.182575598013
  0
LINE
  8
_0-7_
  6
CONTINUOUS
 62
    7
 10
5361.0619011325979
 20
12885.215264048185
 11
5361.0619011325979
 21
11787.177155487621
  0
LINE
  8
_0-7_
  6
CONTINUOUS
 62
    7
 10
5410.0736736124017
 20
12865.366784412719
 11
5410.0736736124017
 21
11787.177155487621
  0
LINE
  8
_0-7_
  6
CONTINUOUS
 62
    7
 10
4712.6518080386631
 20
13107.19519031582
 11
4361.0770656588611
 21
13107.19519031582
  0
LINE
  8
_0-7_
  6
CONTINUOUS
 62
    7
 10
5077.9783546863545
 20
12843.191583350182
 11
4361.0770656588611
 21
12843.191583350182
  0
LINE
  8
_0-7_
  6
CONTINUOUS
 62
    7
 10
5077.9783546863545
 20
12579.187976384542
 11
4361.0770656588611
 21
12579.187976384542
  0
LINE
  8
_0-7_
  6
CONTINUOUS
 62
    7
 10
5077.9783546863545
 20
12315.184369418902
 11
4361.0770656588611
 21
12315.184369418902
  0
LINE
  8
_0-7_
  6
CONTINUOUS
 62
    7
 10
5077.9783546863545
 20
12051.180762453263
 11
4361.0770656588611
 21
12051.180762453263
  0
LINE
  8
_0-7_
  6
CONTINUOUS
 62
    7
 10
5077.9783546863545
 20
12843.191583350182
 11
5361.0619011325979
 21
12843.191583350182
  0
LINE
  8
_0-7_
  6
CONTINUOUS
 62
    7
 10
5410.0736736124017
 20
12843.191583350182
 11
5461.0673212430183
 21
12843.191583350182
  0
LINE
  8
_0-7_
  6
CONTINUOUS
 62
    7
 10
5077.9783546863545
 20
12579.187976384542
 11
5361.0619011325979
 21
12579.187976384542
  0
LINE
  8
_0-7_
  6
CONTINUOUS
 62
    7
 10
5410.0736736124017
 20
12579.187976384542
 11
5461.0673212430183
 21
12579.187976384542
  0
LINE
  8
_0-7_
  6
CONTINUOUS
 62
    7
 10
5077.9783546863545
 20
12315.184369418902
 11
5361.0619011325979
 21
12315.184369418902
  0
LINE
  8
_0-7_
  6
CONTINUOUS
 62
    7
 10
5410.0736736124017
 20
12315.184369418902
 11
5461.0673212430183
 21
12315.184369418902
  0
LINE
  8
_0-7_
  6
CONTINUOUS
 62
    7
 10
5077.9783546863545
 20
12051.180762453263
 11
5361.0619011325979
 21
12051.180762453263
  0
LINE
  8
_0-7_
  6
CONTINUOUS
 62
    7
 10
5410.0736736124017
 20
12051.180762453263
 11
5461.0673212430183
 21
12051.180762453263
  0
LINE
  8
_0-7_
  6
CONTINUOUS
 62
    7
 10
2881.0622499049259
 20
11674.92374694515
 11
2881.0622499049259
 21
8387.1811498733168
  0
LINE
  8
_0-7_
  6
CONTINUOUS
 62
    7
 10
5461.0673212430183
 20
12844.755282844187
 11
5461.0673212430183
 21
8387.1811498733168
  0
LINE
  8
_0-7_
  6
CONTINUOUS
 62
    7
 10
5161.0510609118136
 20
8387.1811498733168
 11
5461.0673212430183
 21
8387.1811498733168
  0
LINE
  8
_0-4_
  6
dotted
 62
    4
 10
20421.053709696188
 20
24339.170818671584
 11
9513.0537096961961
 21
24339.170818671584
  0
LINE
  8
_0-4_
  6
dotted
 62
    4
 10
20421.053709696188
 20
22521.170818671587
 11
9513.0537096961961
 21
22521.170818671587
  0
LINE
  8
_0-4_
  6
dotted
 62
    4
 10
20421.053709696188
 20
20703.170818671587
 11
9513.0537096961961
 21
20703.170818671587
  0
LINE
  8
_0-4_
  6
dotted
 62
    4
 10
20421.053709696188
 20
18885.170818671584
 11
9513.0537096961961
 21
18885.170818671584
  0
LINE
  8
_0-4_
  6
dotted
 62
    4
 10
20421.053709696188
 20
17067.170818671587
 11
9513.0537096961961
 21
17067.170818671587
  0
LINE
  8
_0-4_
  6
dotted
 62
    4
 10
20421.053709696188
 20
15249.170818671587
 11
9513.0537096961961
 21
15249.170818671587
  0
LINE
  8
_0-4_
  6
dotted
 62
    4
 10
20421.053709696188
 20
13431.170818671585
 11
9513.0537096961961
 21
13431.170818671585
  0
LINE
  8
_0-4_
  6
dotted
 62
    4
 10
20421.053709696188
 20
11613.170818671587
 11
9513.0537096961961
 21
11613.170818671587
  0
LINE
  8
_0-4_
  6
dotted
 62
    4
 10
20421.053709696188
 20
9795.1708186715841
 11
9513.0537096961961
 21
9795.1708186715841
  0
LINE
  8
_0-4_
  6
dotted
 62
    4
 10
20421.053709696188
 20
7977.1708186715841
 11
9513.0537096961961
 21
7977.1708186715841
  0
LINE
  8
_0-5_
  6
CONTINUOUS
 62
    7
 10
30321.057671679074
 20
26404.636061624511
 11
30321.057671679074
 21
25607.071737147281
  0
LINE
  8
_0-5_
  6
CONTINUOUS
 62
    7
 10
30321.057671679074
 20
26404.636061624511
 11
30321.057671679074
 21
27170.432613334058
  0
LINE
  8
_0-5_
  6
CONTINUOUS
 62
    7
 10
30321.057671679074
 20
27170.432613334058
 11
30373.152124979158
 21
26874.990287430398
  0
LINE
  8
_0-5_
  6
CONTINUOUS
 62
    7
 10
30321.057671679074
 20
27170.432613334058
 11
30268.963218378998
 21
26874.990287430398
  0
LINE
  8
_0-5_
  6
CONTINUOUS
 62
    7
 10
30268.963218378998
 20
26874.990287430398
 11
30373.152124979158
 21
26874.990287430398
  0
SOLID
  8
_0-5_
  6
CONTINUOUS
 62
    7
 10
30268.963218378998
 20
26874.990287430398
 11
30373.152124979158
 21
26874.990287430398
 12
30268.963218378998
 22
26874.990287430398
 13
30321.057671679074
 23
27170.432613334058
  0
TEXT
  8
_0-5_
 62
    7
 10
29557.840484402993
 20
27251.329637265745
 40
500
 41
1
 50
0
  1
搬入口
  0
LINE
  8
_0-5_
  6
CONTINUOUS
 62
    7
 10
2174.416745703661
 20
10759.921717938592
 11
1527.6975855986734
 21
10759.921717938592
  0
SOLID
  8
_0-5_
  6
CONTINUOUS
 62
    7
 10
1527.6975855986734
 20
10759.921717938592
 11
1823.139911502335
 21
10812.016171238672
 12
1823.139911502335
 22
10707.827264638512
 13
1823.139911502335
 23
10707.827264638512
  0
TEXT
  8
_0-5_
 62
    7
 10
1192.5707264560628
 20
11309.531250952913
 40
500
 41
1
 50
0
  1
楽屋
  7
TATEGAKI
  0
SOLID
  8
_0-5_
  6
CONTINUOUS
 62
    7
 10
2406.0761418835509
 20
3837.1941718315156
 11
2458.1705951836338
 21
3541.7518459278512
 12
2353.9816885834738
 22
3541.7518459278512
 13
2353.9816885834738
 23
3541.7518459278512
  0
TEXT
  8
_0-5_
 62
    7
 10
1851.3599170162081
 20
5782.5984037099406
 40
250
 41
1
 50
0
  1
リハーサル室
  0
LINE
  8
_0-5_
  6
CONTINUOUS
 62
    7
 10
2481.0504788390744
 20
5717.1791279364842
 11
2481.0504788390744
 21
5786.1632032453908
  0
TEXT
  8
_0-5_
 62
    7
 10
2736.792035339221
 20
2662.6252687153851
 40
250
 41
1
 50
0
  1
シーリング
  0
TEXT
  8
_0-5_
 62
    7
 10
2840.2062690538341
 20
2353.9033651261715
 40
250
 41
1
 50
0
  1
フロント
  0
TEXT
  8
_0-5_
 62
    7
 10
2759.603998658622
 20
2055.8270444193453
 40
250
 41
1
 50
0
  1
ピンルーム
  0
TEXT
  8
_0-5_
 62
    7
 10
3709.3800914618554
 20
10333.566154191126
 40
300
 41
1
 50
0
  1
中２階
  0
TEXT
  8
_0-5_
 62
    7
 10
3570.7974142964985
 20
9722.7758363141929
 40
300
 41
1
 50
0
  1
舞台機構
  0
TEXT
  8
_0-5_
 62
    7
 10
3735.0435501961783
 20
9312.1604965649967
 40
300
 41
1
 50
0
  1
操作盤
  0
LINE
  8
_0-5_
  6
CONTINUOUS
 62
    7
 10
3676.4550404265664
 20
10287.546906597075
 11
4676.4550404265664
 21
10287.546906597075
  0
LINE
  8
_0-5_
  6
CONTINUOUS
 62
    7
 10
4676.4550404265664
 20
10287.546906597075
 11
4676.4550404265664
 21
10687.546906597075
  0
LINE
  8
_0-5_
  6
CONTINUOUS
 62
    7
 10
3676.4550404265664
 20
10687.546906597075
 11
3676.4550404265664
 21
10287.546906597075
  0
LINE
  8
_0-5_
  6
CONTINUOUS
 62
    7
 10
3498.3754253784468
 20
9231.7143023392764
 11
4848.3754253784463
 21
9231.7143023392764
  0
LINE
  8
_0-5_
  6
CONTINUOUS
 62
    7
 10
4848.3754253784463
 20
9231.7143023392764
 11
4848.3754253784463
 21
10131.714302339276
  0
LINE
  8
_0-5_
  6
CONTINUOUS
 62
    7
 10
4848.3754253784463
 20
10131.714302339276
 11
3498.3754253784468
 21
10131.714302339276
  0
LINE
  8
_0-5_
  6
CONTINUOUS
 62
    7
 10
3498.3754253784468
 20
10131.714302339276
 11
3498.3754253784468
 21
9231.7143023392764
  0
LINE
  8
_0-6_
  6
CONTINUOUS
 62
    7
 10
7713.053709696197
 20
22557.170818671584
 11
7035.428966569736
 21
22557.170818671584
  0
LINE
  8
_0-6_
  6
CONTINUOUS
 62
    7
 10
7713.053709696197
 20
20907.170818671584
 11
7035.428966569736
 21
20907.170818671584
  0
LINE
  8
_0-6_
  6
CONTINUOUS
 62
    7
 10
7713.053709696197
 20
20157.170818671584
 11
7035.428966569736
 21
20157.170818671584
  0
LINE
  8
_0-6_
  6
CONTINUOUS
 62
    7
 10
7713.053709696197
 20
19907.170818671584
 11
7035.428966569736
 21
19907.170818671584
  0
LINE
  8
_0-6_
  6
CONTINUOUS
 62
    7
 10
7713.053709696197
 20
17807.170818671584
 11
7035.428966569736
 21
17807.170818671584
  0
LINE
  8
_0-6_
  6
CONTINUOUS
 62
    7
 10
7713.053709696197
 20
17557.170818671584
 11
7035.428966569736
 21
17557.170818671584
  0
LINE
  8
_0-6_
  6
CONTINUOUS
 62
    7
 10
7713.053709696197
 20
15057.170818671585
 11
7035.428966569736
 21
15057.170818671585
  0
LINE
  8
_0-6_
  6
CONTINUOUS
 62
    7
 10
7713.053709696197
 20
14807.170818671585
 11
7035.428966569736
 21
14807.170818671585
  0
LINE
  8
_0-6_
  6
CONTINUOUS
 62
    7
 10
7713.053709696197
 20
12707.170818671585
 11
7035.428966569736
 21
12707.170818671585
  0
LINE
  8
_0-6_
  6
CONTINUOUS
 62
    7
 10
7713.053709696197
 20
12457.170818671585
 11
7035.428966569736
 21
12457.170818671585
  0
LINE
  8
_0-6_
  6
CONTINUOUS
 62
    7
 10
7713.053709696197
 20
11957.170818671585
 11
7035.428966569736
 21
11957.170818671585
  0
LINE
  8
_0-6_
  6
CONTINUOUS
 62
    7
 10
7713.053709696197
 20
10357.170818671585
 11
7035.428966569736
 21
10357.170818671585
  0
LINE
  8
_0-6_
  6
CONTINUOUS
 62
    7
 10
7713.053709696197
 20
10107.170818671585
 11
7035.428966569736
 21
10107.170818671585
  0
LINE
  8
_0-6_
  6
CONTINUOUS
 62
    7
 10
7713.053709696197
 20
9607.1708186715859
 11
7035.428966569736
 21
9607.1708186715859
  0
LINE
  8
_0-6_
  6
CONTINUOUS
 62
    7
 10
8513.0537096961961
 20
20657.170818671584
 11
8013.053709696197
 21
20657.170818671584
  0
LINE
  8
_0-6_
  6
CONTINUOUS
 62
    7
 10
8513.0537096961961
 20
16257.170818671585
 11
8013.053709696197
 21
16257.170818671585
  0
LINE
  8
_0-a_
  6
CONTINUOUS
 62
    7
 10
11743.436436087791
 20
12029.87543399917
 11
11316.746886863122
 21
12202.269202175719
  0
ARC
  8
_0-a_
  6
CONTINUOUS
 62
    7
 10
11318.176663231115
 20
12201.395463085304
 40
915.00202900654392
 50
158
 51
248
  0
LINE
  8
_0-a_
  6
CONTINUOUS
 62
    7
 10
11318.176663231115
 20
12201.395463085304
 11
10469.773991600755
 21
12544.172392492579
  0
LINE
  8
_0-a_
  6
CONTINUOUS
 62
    7
 10
29098.420962678999
 20
12029.760924116284
 11
29525.342298299518
 21
12202.248340075548
  0
ARC
  8
_0-a_
  6
CONTINUOUS
 62
    7
 10
29525.069937374308
 20
12202.782134744491
 40
915.00202900654392
 50
292
 51
22.000000000000007
  0
LINE
  8
_0-a_
  6
CONTINUOUS
 62
    7
 10
29867.835730429094
 20
11354.407026553772
 11
29446.116480839562
 21
11184.021389780076
  0
LINE
  8
_0-a_
  6
CONTINUOUS
 62
    7
 10
10972.314205599646
 20
11354.278072467441
 11
11395.642667858486
 21
11183.242271572402
  0
TEXT
  8
_0-8_
 62
    7
 10
37317.56531989594
 20
7378.4309699638097
 40
500
 41
1
 50
0
  1
年　月　日（　）
  0
TEXT
  8
_0-8_
 62
    7
 10
35030.951146667597
 20
6494.9664030346757
 40
500
 41
1
 50
0
  1
催し物名
  0
LINE
  8
_0-8_
  6
CONTINUOUS
 62
    7
 10
34970.513701348259
 20
6440.6881878115764
 11
41129.743797586226
 21
6440.6881878115764
  0
TEXT
  8
_0-8_
 62
    7
 10
35455.553071426998
 20
5817.0661405674818
 40
500
 41
1
 50
0
  1
備考
  0
TEXT
  8
_0-8_
 62
    7
 10
37337.1978658277
 20
26649.507085449375
 40
500
 41
1
 50
0
  1
Ｓ＝1／100
  0
LINE
  8
_0-8_
  6
CONTINUOUS
 62
    7
 10
5203.3716382109732
 20
8387.1811498733422
 11
5461.0673212429956
 21
8644.8768329053655
  0
LINE
  8
_0-8_
  6
CONTINUOUS
 62
    7
 10
4779.1075694989558
 20
8387.1811498733259
 11
5461.0673212430074
 21
9069.1409016173729
  0
LINE
  8
_0-8_
  6
CONTINUOUS
 62
    7
 10
4354.8435007869929
 20
8387.1811498733623
 11
5461.0673212429674
 21
9493.4049703293367
  0
LINE
  8
_0-8_
  6
CONTINUOUS
 62
    7
 10
2881.0622499049432
 20
9883.2483799747642
 11
4784.9910254178294
 21
11787.177155487652
  0
LINE
  8
_0-8_
  6
CONTINUOUS
 62
    7
 10
2881.0622499049204
 20
10307.51244868656
 11
4360.726956705972
 21
11787.177155487614
  0
LINE
  8
_0-8_
  6
CONTINUOUS
 62
    7
 10
2881.0622499049031
 20
10731.776517398544
 11
3936.4628879940082
 21
11787.177155487652
  0
LINE
  8
_0-8_
  6
CONTINUOUS
 62
    7
 10
2881.0622499048631
 20
11156.040586110506
 11
3512.1988192820426
 21
11787.177155487685
  0
LINE
  8
_0-8_
  6
CONTINUOUS
 62
    7
 10
2881.0622499049713
 20
11580.30465482243
 11
3087.9347505701216
 21
11787.177155487583
  0
LINE
  8
_0-8_
  6
CONTINUOUS
 62
    7
 10
4109.6248452392528
 20
10687.546906597075
 11
5209.255094129804
 21
11787.177155487626
  0
LINE
  8
_0-8_
  6
CONTINUOUS
 62
    7
 10
4533.8889139510711
 20
10687.546906597077
 11
5461.0673212429555
 21
11614.725313888962
  0
LINE
  8
_0-8_
  6
CONTINUOUS
 62
    7
 10
4676.4550404265664
 20
10405.848964360571
 11
5461.0673212429956
 21
11190.461245176999
  0
LINE
  8
_0-8_
  6
CONTINUOUS
 62
    7
 10
2881.0622499048749
 20
9034.7202425508803
 11
3498.3754253784468
 21
9652.0334180244535
  0
LINE
  8
_0-8_
  6
CONTINUOUS
 62
    7
 10
3978.0563096932696
 20
10131.714302339276
 11
4133.8889139510683
 21
10287.546906597075
  0
LINE
  8
_0-8_
  6
CONTINUOUS
 62
    7
 10
2881.0622499049827
 20
9458.9843112628041
 11
3498.3754253784468
 21
10076.297486736268
  0
LINE
  8
_0-8_
  6
CONTINUOUS
 62
    7
 10
3553.7922409814541
 20
10131.714302339276
 11
3709.6248452392528
 21
10287.546906597075
  0
LINE
  8
_0-8_
  6
CONTINUOUS
 62
    7
 10
2881.0622499049145
 20
8610.4561738389202
 11
3502.3203784052698
 21
9231.7143023392764
  0
LINE
  8
_0-8_
  6
CONTINUOUS
 62
    7
 10
4402.320378405273
 20
10131.714302339278
 11
4558.1529826630712
 21
10287.546906597075
  0
LINE
  8
_0-8_
  6
CONTINUOUS
 62
    7
 10
3082.051294651339
 20
8387.1811498733441
 11
3926.5844471172699
 21
9231.7143023392745
  0
LINE
  8
_0-8_
  6
CONTINUOUS
 62
    7
 10
4826.5844471172695
 20
10131.714302339274
 11
5461.0673212430156
 21
10766.19717646502
  0
LINE
  8
_0-8_
  6
CONTINUOUS
 62
    7
 10
3506.3153633631145
 20
8387.1811498733022
 11
4350.8485158290877
 21
9231.7143023392764
  0
LINE
  8
_0-8_
  6
CONTINUOUS
 62
    7
 10
4848.3754253784463
 20
9729.241211888635
 11
5461.0673212429819
 21
10341.933107753167
  0
LINE
  8
_0-8_
  6
CONTINUOUS
 62
    7
 10
3930.5794320750892
 20
8387.1811498732768
 11
4775.1125845410879
 21
9231.7143023392764
  0
LINE
  8
_0-8_
  6
CONTINUOUS
 62
    7
 10
4848.3754253784463
 20
9304.977143176633
 11
5461.067321243021
 21
9917.6690390412077
  0
LINE
  8
_0-7_
  6
CONTINUOUS
 62
    7
 10
36608.192809058993
 20
22397.175503532263
 11
36841.062748319396
 21
22630.045442792659
  0
LINE
  8
_0-7_
  6
CONTINUOUS
 62
    7
 10
36183.928740346935
 20
22397.175503532205
 11
36841.062748319447
 21
23054.309511504721
  0
LINE
  8
_0-7_
  6
CONTINUOUS
 62
    7
 10
35759.664671634964
 20
22397.175503532234
 11
36841.06274831944
 21
23478.57358021671
  0
LINE
  8
_0-7_
  6
CONTINUOUS
 62
    7
 10
35335.400602923109
 20
22397.175503532202
 11
36841.062748319462
 21
23902.837648928551
  0
LINE
  8
_0-7_
  6
CONTINUOUS
 62
    7
 10
34911.136534211131
 20
22397.17550353222
 11
36841.062748319425
 21
24327.101717640511
  0
LINE
  8
_0-7_
  6
CONTINUOUS
 62
    7
 10
34486.872465499167
 20
22397.175503532256
 11
36686.872795418894
 21
24597.175833451983
  0
LINE
  8
_0-7_
  6
CONTINUOUS
 62
    7
 10
34062.608396787334
 20
22397.175503532234
 11
36262.608726707083
 21
24597.175833451987
  0
LINE
  8
_0-7_
  6
CONTINUOUS
 62
    7
 10
33638.344328075341
 20
22397.175503532245
 11
35838.344657995061
 21
24597.175833451969
  0
LINE
  8
_0-7_
  6
CONTINUOUS
 62
    7
 10
33214.080259363508
 20
22397.175503532234
 11
35414.080589283257
 21
24597.175833451983
  0
LINE
  8
_0-7_
  6
CONTINUOUS
 62
    7
 10
32789.816190651501
 20
22397.175503532227
 11
34989.816520571279
 21
24597.175833452005
  0
LINE
  8
_0-7_
  6
CONTINUOUS
 62
    7
 10
32451.060648615748
 20
22482.684030208467
 11
34565.552451859271
 21
24597.17583345199
  0
LINE
  8
_0-7_
  6
CONTINUOUS
 62
    7
 10
32451.060648615737
 20
22906.948098920282
 11
34141.288383147482
 21
24597.17583345202
  0
LINE
  8
_0-7_
  6
CONTINUOUS
 62
    7
 10
32451.060648615777
 20
23331.212167632322
 11
33717.024314435431
 21
24597.175833451972
  0
LINE
  8
_0-7_
  6
CONTINUOUS
 62
    7
 10
32451.060648615755
 20
23755.476236344118
 11
33292.760245723657
 21
24597.17583345202
  0
LINE
  8
_0-7_
  6
CONTINUOUS
 62
    7
 10
32451.060648615766
 20
24179.740305056129
 11
32868.496177011649
 21
24597.175833452012
  0
TEXT
  8
_0-6_
 62
    7
 10
6301.6719576719569
 20
18365.111111111113
 40
200
 41
1
 50
0
  1
ライトブリッジ 4
  0
ARC
  8
_0-7_
  6
CONTINUOUS
 62
    7
 10
28906.050838215967
 20
26427.130344586305
 40
2829.9929191707196
 50
106.84380264867235
 51
151.33615909666994
  0
ARC
  8
_0-7_
  6
CONTINUOUS
 62
    7
 10
28906.050838215967
 20
26427.130344586305
 40
2829.9929191707196
 50
170.69744419002924
 51
178.08306884797184
  0
TEXT
  8
_0-1_
 62
    7
 10
12514.285714285715
 20
26928.349206349208
 40
800
 41
1
 50
0
  1
高知市文化プラザ　大ホール舞台反響板平面図
  0
LINE
  8
_0-8_
  6
CONTINUOUS
 62
    7
 10
33893.298337707783
 20
25402.685914260717
 11
33893.298337707783
 21
25722.685914260717
  0
TEXT
  8
_0-8_
 62
    7
 10
32716.395450568677
 20
25053.149606299211
 40
300
 41
1
 50
0
  1
特別電源盤
  0
LINE
  8
_0-8_
  6
CONTINUOUS
 62
    7
 10
8161.0749329632708
 20
25397.173118683655
 11
6961.0749329632708
 21
25397.173118683655
  0
LINE
  8
_0-8_
  6
CONTINUOUS
 62
    7
 10
6961.0749329632708
 20
25397.173118683655
 11
6961.0749329632708
 21
25717.173118683662
  0
TEXT
  8
_0-8_
 62
    7
 10
6827.6115485564332
 20
25030.052493438317
 40
300
 41
1
 50
0
  1
特別電源盤
  0
LINE
  8
_0-8_
  6
CONTINUOUS
 62
    7
 10
32681.072123932153
 20
25447.13348118063
 11
33893.298337707783
 21
25447.13348118063
  0
LINE
  8
_0-8_
  6
CONTINUOUS
 62
    7
 10
8161.0749329632708
 20
25447.173118683655
 11
6961.0749329632708
 21
25447.173118683655
  0
LINE
  8
_0-6_
  6
CONTINUOUS
 62
    2
 10
8013.053709696197
 20
13532.170818671585
 11
8013.053709696197
 21
12882.170818671585
  0
LINE
  8
_0-6_
  6
CONTINUOUS
 62
    2
 10
9513.0537096961961
 20
13532.170818671585
 11
8013.053709696197
 21
13532.170818671585
  0
LINE
  8
_0-6_
  6
CONTINUOUS
 62
    2
 10
9513.0537096961961
 20
12882.170818671585
 11
8013.053709696197
 21
12882.170818671585
  0
LINE
  8
_0-6_
  6
CONTINUOUS
 62
    2
 10
8013.053709696197
 20
11182.170818671585
 11
8013.053709696197
 21
10532.170818671585
  0
LINE
  8
_0-6_
  6
CONTINUOUS
 62
    2
 10
9513.0537096961961
 20
11182.170818671585
 11
8013.053709696197
 21
11182.170818671585
  0
LINE
  8
_0-6_
  6
CONTINUOUS
 62
    2
 10
9513.0537096961961
 20
10532.170818671585
 11
8013.053709696197
 21
10532.170818671585
  0
LINE
  8
_0-6_
  6
CONTINUOUS
 62
    2
 10
8013.053709696197
 20
18632.170818671584
 11
8013.053709696197
 21
17982.170818671584
  0
LINE
  8
_0-6_
  6
CONTINUOUS
 62
    2
 10
9513.0537096961961
 20
18632.170818671584
 11
8013.053709696197
 21
18632.170818671584
  0
LINE
  8
_0-6_
  6
CONTINUOUS
 62
    2
 10
9513.0537096961961
 20
17982.170818671584
 11
8013.053709696197
 21
17982.170818671584
  0
TEXT
  8
_0-5_
 62
    7
 10
1856.428501992812
 20
6071.6333452145663
 40
250
 41
1
 50
0
  1
奈落
  0
ENDSEC
  0
EOF
